Cifra Club

Never Be The Same

Built To Spill

Cifra: Principal (violão e guitarra)
Selo Cifra Club: esta cifra foi revisada para atender aos critérios oficiais da nossa Equipe de Qualidade.
tom: Am
E|E|-------------------------------------------------------------------------------||
                             NEVER BE THE SAME – Built To Spill
E|E|-------------------------------------------------------------------------------||
Tabbed by:Benson

Tuning: Standard

Intro - just a C chord, this riff is low in the mix,its much more prominent on the live bootleg:

E|---------------------------------------------------------------------------|
B|---------------------------------------------------------------------------|
G|-----------5---------------------------------------------------------------|
D|-----2---5-----------------------------------------------------------------|
A|-3-3---3--3----------------------------------------------------------------|
E|---------------------------------------------------------------------------|

Verses:

C
Go everywhere you wanna go
Am
See everything you wanna see
C
Everyone you wanna know
Am

Then this Fsus4 riff:
E|---------------------------------------------------------------------------|
B|-1-1-1-1-1-1-1-------------------------------------------------------------|
G|-2-0-2-0-2-0-2-------------------------------------------------------------|
D|-3-3-3-3-3-3-3-------------------------------------------------------------|
A|-3-3-3-3-3-3-3-------------------------------------------------------------|
E|---------------------------------------------------------------------------|

C major riff

E|---------------------------------------------------------------------------|
B|---------------------------------------------------------------------------|
G|---------------------------------------------------------------------------|
D|---------------------------------------------------------------------------|
A|-3-----5--3----------------------------------------------------------------|
E|---5-3---------------------------------------------------------------------|

C
If that's what you want

Am riff

E|---------------------------------------------------------------------------|
B|---------------------------------------------------------------------------|
G|---------------------------------------------------------------------------|
D|---------------------------------------------------------------------------|
A|---------------------------------------------------------------------------|
E|-5-3-0-3-5-----------------------------------------------------------------|

Am
You got it you got it

C major riff

E|---------------------------------------------------------------------------|
B|---------------------------------------------------------------------------|
G|---------------------------------------------------------------------------|
D|---------------------------------------------------------------------------|
A|-3-----5--3----------------------------------------------------------------|
E|---5-3---------------------------------------------------------------------|

C
If that's what you want

Am riff

E|---------------------------------------------------------------------------|
B|---------------------------------------------------------------------------|
G|---------------------------------------------------------------------------|
D|---------------------------------------------------------------------------|
A|---------------------------------------------------------------------------|
E|-5-3-0-3-5-----------------------------------------------------------------|

Then this Fsus4 riff again:
E|---------------------------------------------------------------------------|
B|-1-1-1-1-1-1-1-------------------------------------------------------------|
G|-2-0-2-0-2-0-2-------------------------------------------------------------|
D|-3-3-3-3-3-3-3-------------------------------------------------------------|
A|-3-3-3-3-3-3-3-------------------------------------------------------------|
E|---------------------------------------------------------------------------|

Then C for a few bars

E        F                C
We would never be the same 

x 2 then back to C

Then repeat verse and chorus into:
 
Bridge - the chord changes from C to F at the end of each line are very quick

Am                      C F
I know you get something
G                       C F
Everybody wants to know
Am                      C F
I know you know something
G                       C F
Everybody's gotta know
Am                      C F
I know you want something
G                       C F
Everybody's gotta go
Am                      C F
I know you need something
G
Outros vídeos desta música
    14 exibições
      • ½ Tom
      • Am
      • Bbm
      • Bm
      • Cm
      • C#m
      • Dm
      • Ebm
      • Em
      • Fm
      • F#m
      • Gm
      • G#m
    • Adicionar à lista

    Afinação da cifra

    Afinador online

      0 comentários

      Ver todos os comentários

      Conseguiu tocar?

      0Tocaram0Ainda não

      Grave um vídeo tocando Never Be The Same e nos envie!

      Toque também

      1. Imagem do artista PavementHarness Your Hopes Pavement
      2. Imagem do artista Modest MouseFloat On Modest Mouse
      3. Imagem do artista The Halo BendersSnowfall The Halo Benders
      4. Imagem do artista Ugly CasanovaParasites Ugly Casanova

      Entre para o Cifra Club PRO

      Tenha acesso a benefícios exclusivos no App e no Site

      • Chega de anúncios

      • Badges exclusivas

      • Mais recursos no app do Afinador

      • Atendimento Prioritário

      • Aumente seu limite de lista

      • Ajude a produzir mais conteúdo

      Cifra Club Pro

      Aproveite o Cifra Club com benefícios exclusivos e sem anúncios
      Cifra Club Pro
      Aproveite o Cifra Club com benefícios exclusivos e sem anúncios
      Ops (: Contenido disponible sólo en portugués.
      OK