Cifra Club

Die Liebe Nerpus

Burzum

Cifra: Principal (violão e guitarra)
Selo Cifra Club: esta cifra foi revisada para atender aos critérios oficiais da nossa Equipe de Qualidade.
tom: F
E|-------------------------------------|
B|-------------------------------------|
G|--7------10p--9----9------10h--12----|
D|--0----------------0-----------------|
A|-------------------------------------|
E|-------------------------------------|
 
E|---------------------------------------|-------------------------------------|
B|--10-----------------------------------|-------------------------------------|
G|----------12p--10----9------12p--10----|--7------10p--9----9------10h--12----|
D|---0-----------------------------------|--0----------------0-----------------|
A|---------------------------------------|-------------------------------------|
E|---------------------8-----------------|-------------------------------------|
 
E|------------------------------|-------------------------------------|
B|--10--------------------------|-------------------------------------|
G|----------12p--10----9--------|--7------10p--9----9------10h--12----|
D|---0--------------------------|--0----------------0-----------------|
A|------------------------------|-------------------------------------|
E|---------------------8--------|-------------------------------------|
  
E|---------------------------------------|-------------------------------------|
B|--10-----------------------------------|-------------------------------------|
G|----------12p--10----9------12p--10----|--7------10p--9----9------10h--12----|
D|---0-----------------------------------|--0----------------0-----------------|
A|---------------------------------------|-------------------------------------|
E|---------------------8-----------------|-------------------------------------|
    
E|------------------------------------|
B|--10--------------------------10----|
G|----------12p--10----9--------------|
D|---0--------------------------------|
A|------------------------------------|
E|---------------------8--------------|
Part 2:

E|--------------10-----------------------|
B|--10----------------10-----------------|
G|----------10----------------10h--12----|
D|---0-----------------0-----------------|
A|---------------------------------------|
E|---------------------------------------|

E|---------------------------------------|--------------10-----------------------|
B|--10-----------------------------------|--10----------------10-----------------|
G|----------12p--10----9------10h--12----|----------10----------------10h--12----|
D|---0-----------------------------------|---0-----------------0-----------------|
A|---------------------------------------|---------------------------------------|
E|---------------------8-----------------|---------------------------------------|
    
E|------------------------------------|--------------10-----------------------|
B|--10--------------------------10----|--10----------------10-----------------|
G|----------12p--10----9--------------|----------10----------------10h--12----|
D|---0--------------------------------|---0-----------------0-----------------|
A|------------------------------------|---------------------------------------|
E|---------------------8--------------|---------------------------------------|
    
E|---------------------------------------|--------------10-----------------------|
B|--10-----------------------------------|--10----------------10-----------------|
G|----------12p--10----9------10h--12----|----------10----------------10h--12----|
D|---0-----------------------------------|---0-----------------0-----------------|
A|---------------------------------------|---------------------------------------|
E|---------------------8-----------------|---------------------------------------|
                                                 
E|------------------------------|
B|--10--------------------------|
G|----------12p--10----9--------|
D|---0--------------------------|
A|------------------------------|
E|---------------------8--------|
Outros vídeos desta música
    23 exibições
      • ½ Tom
      • A
      • Bb
      • B
      • C
      • Db
      • D
      • Eb
      • E
      • F
      • F#
      • G
      • Ab
    • Adicionar à lista

    Afinação da cifra

    Afinador online

      0 comentários

      Ver todos os comentários

      Conseguiu tocar?

      0Tocaram0Ainda não

      Grave um vídeo tocando Die Liebe Nerpus e nos envie!

      Toque também

      1. Imagem do artista MayhemFreezing Moon Mayhem
      2. Imagem do artista DarkthroneTransilvanian Hunger Darkthrone
      3. Imagem do artista ImmortalTyrants Immortal
      4. Imagem do artista NargarothSeven Tears Are Flowing To The River Nargaroth

      Entre para o Cifra Club PRO

      Tenha acesso a benefícios exclusivos no App e no Site

      • Chega de anúncios

      • Badges exclusivas

      • Mais recursos no app do Afinador

      • Atendimento Prioritário

      • Aumente seu limite de lista

      • Ajude a produzir mais conteúdo

      Cifra Club Pro

      Aproveite o Cifra Club com benefícios exclusivos e sem anúncios
      Cifra Club Pro
      Aproveite o Cifra Club com benefícios exclusivos e sem anúncios
      Ops (: Contenido disponible sólo en portugués.
      OK