Cifra Club

Float

Bush

Cifra: Principal (violão e guitarra)
Selo Cifra Club: esta cifra foi revisada para atender aos critérios oficiais da nossa Equipe de Qualidade.
tom: D
A introdução é muito distorcida, ai vai ela:

E|-----------------------------|
B|-----------------------------|
G|-------6---4-----------------|
D|---------------7-4-4h5-4---4-|
A|-5-4-5---5---5-----------7---| X3
E|-----------------------------|

                   It's a    beautiful...   
E|---------------------------------------|
B|---------------------------------------|
G|-------6---4---------------------------|
D|---------------7--4---4h5---4-------4--|
A|-5-4-5---5---5------------------7------| 
E|---------------------------------------|

Segue:
 F#
World, But everyone's insane
            Bm
Either you swim, Either you fade
                 F#
It's revolution times, We're sleeping at the wheel
           Bm
Apocalypse child, In a nuclear field
                       F#
We want to change the world, But not what holds us back
                 Bm
I want to be for you, What I've never had
               A      F#                       Bm
And all of this time,     I was just trying to reach you.
            G      A
Through the   rain  traffic


        D          Bm
As you float into space
     D          Bm
Your white eyes hide your face.
       D          Bm
As you float in between,
      D         Bm
I am with you, If you leave.

               F#              F#              Bm
E|-------------2---------------2---------------2---|
B|-------------2---------------2---------------3---|
G|-------------3---------------3---------------4---|
D|-4~5-5-5-5---4---4~5-5-5-5---4---4~5-5-5-5---4---|
A|-------------4---------------4---------------2---|
E|-------------2---------------2-------------------|

Segue com o mesmo estilo dos versos anteriores

Fragile to the waves, Vicissitudes of days 
When I am with you, I feel a little brave.
The madness and the wars, The circles that we run
Confusion we import, Look what we have become
And all of this time, I was just trying to reach you
Through the rain traffic

As you float into space
Your white eyes hide your face.
As you float in between,
I die with you
If you leave

        D
As you float...

Solo: C#  E  F#  
(F#  G)x4
F# 

(Repete Refrão)
      
      D
I die with you
      Bm
I die with you
      D        Bm
I die with you

(D Bm)x2  D
Outros vídeos desta música
    5.711 exibições
      • ½ Tom
      • A
      • Bb
      • B
      • C
      • Db
      • D
      • Eb
      • E
      • F
      • F#
      • G
      • Ab
    • Adicionar à lista

    Afinação da cifra

    Afinador online

      0 comentários

      Ver todos os comentários

      Entre para o Cifra Club PRO

      Tenha acesso a benefícios exclusivos no App e no Site

      • Chega de anúncios

      • Badges exclusivas

      • Mais recursos no app do Afinador

      • Atendimento Prioritário

      • Aumente seu limite de lista

      • Ajude a produzir mais conteúdo

      Cifra Club Pro

      Aproveite o Cifra Club com benefícios exclusivos e sem anúncios
      Cifra Club Pro
      Aproveite o Cifra Club com benefícios exclusivos e sem anúncios
      Ops (: Contenido disponible sólo en portugués.
      OK