Cifra Club

Machinehead

Bush

Cifra: Principal (violão e guitarra)
Tom: E
Introdução:                     (10x)                     (2x)
e|------------------------------------------------------|
B|------------------------------------------------------|
G|-6---6--8--8--8--9--9--11-11--6-6-X-X-X-6-6-6-X-X-X-X-|
D|-X---X--X--X--X--X--X--X--X---6-6-X-X-X-6-6-6-X-X-X-X-|
A|-4---4--6--6--6--7--7--9--9---4-4-X-X-X-4-4-4-X-X-X-X-|
E|------------------------------------------------------|

e|-----------------------------|
B|-----------------------------|       
G|-6---6--8--8--8--9--9--11-11-|
D|-X---X--X--X--X--X--X--X--X--|      
A|-4---4--6--6--6--7--7--9--9--|       
E|-----------------------------|     


e|-9999/7777/9999/7777/9999/7777/9999/7777/-|
B|-9999/7777/9999/7777/9999/7777/9999/7777/-|
G|------------------------------------------|
D|------------------------------------------|
A|------------------------------------------|
E|------------------------------------------|


Refrão:
C#                      C#                      A
Breathe in, breathe out breathe in, breathe out breathe in
C#                      C#                      A
Breathe in, breathe out breathe in, breathe out breathe in

Verso:
e|------------------------------------------------------------------------|
B|------------------------------------------------------------------------|
G|-6--6--X--X--X--6--6--6--X--X--X--X--6--6--X--X--X--6--6--6--X--X--X--X-|
D|-6--6--X--X--X--6--6--6--X--X--X--X--6--6--X--X--X--6--6--6--X--X--X--X-|
A|-4--4--X--X--X--4--4--4--X--X--X--X--4--4--X--X--X--4--4--4--X--X--X--X-|
E|------------------------------------------------------------------------|

e|------------------------------------------------------------------------|
B|------------------------------------------------------------------------|
G|-2--2--X--X--X--2--2--2--X--X--X--X--2--2--X--X--X--2--2--2--X--X--X--X-|
D|-2--2--X--X--X--2--2--2--X--X--X--X--2--2--X--X--X--2--2--2--X--X--X--X-|
A|-0--0--X--X--X--0--0--0--X--X--X--X--0--0--X--X--X--0--0--0--X--X--X--X-|
E|------------------------------------------------------------------------|
C#
Tied to a wheel,my fingers got to feel
A
Bleeding though its arcane smile
C#
I spin on a whim, I slide to the right
A
I felt you like electric light
C#
For our love, for our fear
A
For our rise against the years and years and years

Verso:
e|-----0---------0---------0---------0-|
B|-4h5---5---4h5---5---4h5---5---4h5-5-|
G|-------------------------------------|
D|-------------------------------------|
A|-------------------------------------|
E|-------------------------------------|
E  B     C#
Got a machinehead
A        E
Better than the rest
B             C#
Green to red
A             E
Machinehead
B               C#
Got a machinehead
   A                   E
Better than the rest
B            C#
Green to red

Interludio:
e|------------------------------------------|
B|------------------------------------------|
G|----------------------2--2--2-2-2-2--2--2-|
D|-4--4--4-4-4-4--4--4--2--2--2-2-2-2--2--2-|
A|-4--4--4-4-4-4--4--4--0--0--0-0-0-0--0--0-|
E|-2--2--2-2-2-2--2--2----------------------|
F#                      A
 And I walk from my machine
F#                      A
 And I walk from my machine

Interludio:
e|-----------------------------|
B|-----------------------------|    
G|-6---6--8--8--8--9--9--11-11-|    
D|-X---X--X--X--X--X--X--X--X--|     
A|-4---4--6--6--6--7--7--9--9--|       
E|-----------------------------|      


e|-9999/7777/9999/7777/9999/7777/9999/7777/-|
B|-9999/7777/9999/7777/9999/7777/9999/7777/-|
G|------------------------------------------|
D|------------------------------------------|
A|------------------------------------------|
E|------------------------------------------|


Refrão:
C#                      C#                      A
Breathe in, breathe out breathe in, breathe out breathe in
C#                      C#                      A
Breathe in, breathe out breathe in, breathe out breathe in

Verso:
e|------------------------------------------------------------------------|
B|------------------------------------------------------------------------|
G|-6--6--X--X--X--6--6--6--X--X--X--X--6--6--X--X--X--6--6--6--X--X--X--X-|
D|-6--6--X--X--X--6--6--6--X--X--X--X--6--6--X--X--X--6--6--6--X--X--X--X-|
A|-4--4--X--X--X--4--4--4--X--X--X--X--4--4--X--X--X--4--4--4--X--X--X--X-|
E|------------------------------------------------------------------------|

e|------------------------------------------------------------------------|
B|------------------------------------------------------------------------|
G|-2--2--X--X--X--2--2--2--X--X--X--X--2--2--X--X--X--2--2--2--X--X--X--X-|
D|-2--2--X--X--X--2--2--2--X--X--X--X--2--2--X--X--X--2--2--2--X--X--X--X-|
A|-0--0--X--X--X--0--0--0--X--X--X--X--0--0--X--X--X--0--0--0--X--X--X--X-|
E|------------------------------------------------------------------------|
C#
Deaf, dumb and dirty, starting to deserve this
A
Leaning on my conscience wall blood is like wine
C#
unconscious all the time
A
If I had it all again I'd change it all

Verso:
e|------------------------------------------------------|
B|------------------------------------------------------|
G|-9--9--9----------------------------------------------|
D|-9--9--9---9--9--9--9--9---11--11--11---7--7--7--7--7-|
A|-7--7--7---9--9--9--9--9---11--11--11---7--7--7--7--7-|
E|-----------7--7--7--7--7---9---9---9----5--5--5--5--5-|
E  B     C#
Got a machinehead
A        E
Better than the rest
B             C#
Green to red
A             E
Machinehead
B               C#
Got a machinehead
   A                   E
Better than the rest
B            C#
Green to red

Interludio:
e|------------------------------------------|
B|------------------------------------------|
G|----------------------2--2--2-2-2-2--2--2-|
D|-4--4--4-4-4-4--4--4--2--2--2-2-2-2--2--2-|
A|-4--4--4-4-4-4--4--4--0--0--0-0-0-0--0--0-|
E|-2--2--2-2-2-2--2--2----------------------|
F#                      A
 And I walk from my machine
F#                      A
 And I walk from my machine

Interludio:
e|-----------------------------|
B|-----------------------------|    
G|-6---6--8--8--8--9--9--11-11-|    
D|-X---X--X--X--X--X--X--X--X--|     
A|-4---4--6--6--6--7--7--9--9--|       
E|-----------------------------|      


e|-9999/7777/9999/7777/9999/7777/9999/7777/-|
B|-9999/7777/9999/7777/9999/7777/9999/7777/-|
G|------------------------------------------|
D|------------------------------------------|
A|------------------------------------------|
E|------------------------------------------|


Refrão:
C#                      C#                      A
Breathe in, breathe out breathe in, breathe out breathe in
C#                      C#                      A
Breathe in, breathe out breathe in, breathe out breathe in

Verso:
e|------------------------------------------------------|
B|------------------------------------------------------|
G|-9--9--9----------------------------------------------|
D|-9--9--9---9--9--9--9--9---11--11--11---7--7--7--7--7-|
A|-7--7--7---9--9--9--9--9---11--11--11---7--7--7--7--7-|
E|-----------7--7--7--7--7---9---9---9----5--5--5--5--5-|
E  B     C#
Got a machinehead
A        E
Better than the rest
B             C#
Green to red
A             E
Machinehead
B               C#
Got a machinehead
   A                   E
Better than the rest
B            C#
Green to red

Interludio final:
e|----------------------------------------------|
B|----------------------------------------------|
G|-9--9--9--11--9--9--9----9--9--9--11--9--9--9-|
D|-X--X--X--X---X--X--X----X--X--X--X---X--X--X-|
A|-7--7--7--9---7--7--7----7--7--7--9---7--7--7-|
E|----------------------------------------------|
 Yeah yeah yeah  
 Better than the rest
 Better than the rest
 Machinehead

Final:
e|-----------------------------------------------|
B|-----------------------------------------------|
G|-----------------------------------------------| 3x entra na segunda
D|-----------------------------------------------|
A|-4--4--4--4--4--4--4--4h7--7--7--7--7--7--7--7-|
E|-2--2--2--2--2--2--2--2h5--5--5--5--5--5--5--5-|
F#                  A
  I walk for my machine
F#                  A   F#
  I walk for my machine...
exibições 48.715
Acordes para:
    Composição: Gavin Rossdale

    0 comentários

    mostrar mais comentários

    Conseguiu tocar?

    8 tocaram 0 ainda não

    Grave um vídeo tocando Machinehead e mande pra gente!

    00:00 / 00:00
    outros vídeos desta música
    repetir qualidade Automático
    Outros vídeos desta música
    00:00 / 00:00
    Automático
    OK