Cifra Club

Swallowed

Bush

Cifra: Principal (violão e guitarra)
Tom: C#
   **********
   * MODO 1:*
   **********

Este é o verso, apenas aproximadamente, mas acho q vc vai descobrir.                 
This is the verse, its just approximate, you'll figure it out.

e--------------------------|
b--------------------------|
g---5--5---4-4--------2----| 
d-5-5-5-5--4-4--2---2---2--|  
a-5-3------2-2--2----------|
e-3------------------------|

Chorus (Eu Acho)/(I guess)


e---------------------------------------------------------------|
b---------------------------------------------------------------|
g-------------4-4-4-4-4-4-5-5-5-5-5-5-5-------------------------|
d-5-5-5-5-5-5-4-4-4-4-4-4-5-5-5-5-5-5-5-7-7-7-7-7-7-7-----------|
a-5-5-5-5-5-5-2-2-2-2-2-2-3-3-3-3-3-3-3-7-7-7-7-7-7-7-----------|
e-3-3-3-3-3-3---------------------------5-5-5-5-5-5-5-----------|
 
 
Bridge (I'm with everyone and yet...)
       (I miss the one that I love alot)

e------------------------------|        
b------------------------------|
g------------------------------|
d-6-6-6-6-6-6-10-10-10-10-10-10|
a-6-6-6-6-6-6-10-10-10-10-10-10|
e-4-4-4-4-4-4--8--8--8--8--8--8|


Solos?  Yaya! Valeu! :) / Yeah right!  I suck at those! :)


   **********
   * MODO 2:*
   **********

intro

E|--------------------------------------------------------------------
B|--------------------------------------------------------------------
G|----------------- 6 -------------------- 10 ------------------------
D|--------- 6 - 6 ---------- 10 ----- 10 -----------------------------
A|--------- 4 ------------------- 8 ----------------------------------
E|----- 4 ------------ 4/8 -------------------------------------------

Chorus

E|--------------------------------------------------------------------
B|--------------------------------------------------------------------
G|----- 5 ---- 9 ---- 10 --- 7 ---------------------------------------
D|----- 6 ---- 10 --- 11 --- 8 ---------------------------------------
A|----- 6 ---- 10 --- 11 --- 8 ---------------------------------------
E|----- 4 ---- 8 ---- 9 ---- 6 ---------------------------------------

Verse 2

E|--------------------------------------------------------------------
B|--------------------------------------------------------------------
G|------------- 6 - 6 - 6 ------------------ 10 - 10 - 10 ------------
D|----- 6 - 6 - 6 - 6 - 6 - 6/10 - 10 - 10 - 10 - 10 - 10 ------------
A|----- 6 - 6 - 4 - 4 - 4 - 6/10 - 10 - 10 - 8 -- 8 -- 8 -------------
E|----- 4 - 4 ------------- 4/8 -- 8 -- 8 ----------------------------

Solo

E|--------------------------------------------------------------------
B|----------------- 3/4 - 4 - 5 ----- 5 ----- 5 ----- 5 --------------
G- 1 - 1 - 1 - 1 --------------- 5 ----- 5 ----- 5 ----- 5 ----------
D|--------------------------------------------------------------------
A|--------------------------------------------------------------------
E|--------------------------------------------------------------------

E|--------------------------------------------------------------------
B|----------------- 3/4 - 4 - 5 ----- 5 ----- 5 ----- 5 --------------
G- 1 - 1 - 1 - 1 --------------- 5 ----- 5 ----- 5 ----- 5 ----------
D|--------------------------------------------------------------------
A|--------------------------------------------------------------------
E|--------------------------------------------------------------------

E|--------------------------------- 8 - 8 - 8 - 12 - 12 - 12 - 12 ----

B- 9 - 9 - 9 - 9 - 8 - 8 - 8 - 8 ------------------------------------
G|--------------------------------------------------------------------
D|--------------------------------------------------------------------
A|--------------------------------------------------------------------
E|--------------------------------------------------------------------

E|--------------------------------- 8 - 8 - 8 - 8 - 12 - 8 -----------

B- 9 - 9 - 9 - 9 - 8 - 8 - 8 - 8 ------------------------------------
G|--------------------------------------------------------------------
D|--------------------------------------------------------------------
A|--------------------------------------------------------------------
E|--------------------------------------------------------------------

Fim do Chorsu 1 (Isso é tocado também durante o solo)
Chorus End 1 (this is also played during solo)


E|--------------------------------------------------------------------
B|--------------------------------------------------------------------
G|--- 5 ------ 9 -----------------------------------------------------
D|--- 6 ------ 10 ----------------------------------------------------
A|--- 6 ------ 10 ----------------------------------------------------
E|--- 4 ------ 8 -----------------------------------------------------

essa parte a seguir vêm após o segundo chorus, bem depois do solo.
this part below comes in after the second chorus right before the solo.

E|--- x - x - x - x - x - x - x - x - x - x - x - x - x - x - x - x --
B|--- 5 - 5 - 5 - 5 - 5 - 5 - 5 - 5 - 5^1/2 - 5^1/2 - 5^1/2 - 5^1/2 --
G|--------------------------------------------------------------------
D|--------------------------------------------------------------------
A|--------------------------------------------------------------------
E|--------------------------------------------------------------------

Ending

Isso não é exatamente os chords.
this is just random picking on these chords.

E|--------------------------------------------------------------------
B|--------------------------------------------------------------------
G|-- 10 ------ 7 -----------------------------------------------------
D|-- 11 ------ 8 -----------------------------------------------------
A|-- 11 ------ 8 -----------------------------------------------------
E|-- 9 ------- 6 ------ 4 - 4 - 4 - 4 - 4 - 4 - 4 - 4 - 4 - 4 - 4 - 4-

Aqui a ordem que se segue:
here's the order it goes:

intro 4X
chorus 2x
chorus end 2x
verse 2 2x
chorus 3X
Chorus End 3X
picking part
solo
intro 4X
Chorus 2X
Chorus End 10X
Ending  (fade out with the G# note)



Aqui estão as letras:
here's lyrics:

Warm sun, feed me up when
I'm leary, load it up
Loathing, for a change and 
I slip some, blow it away

*chorus*
Swallowed, followed, happy bout everything but my love
Swallowed, sorrowed, I'm with everyone and yet not
I'm with everyone and yet not
I'm with everyone and yet

Just wanna be myself

Hey you said you would, love to try some
hey you said you would love to die some
In the middle of a world on a fish hook,
you're the wave, you're the wave, you're the wave

*chorus*
Swallowed, borrowed, happy 'bout everything and yet not
Swallowed, hollowed, sharper 'bout everyone but yourself
Swallowed, I know, I'm with everyone and yet not
I'm with everyone and yet not
I'm with everyone and yet not
I'm with everyone and yet

Heres some, self-esteem enough
for words, busted me
sick head, blackened lungs and Im a 
Simple, selfish son

*chorus*
Swallowed, borrowed, happy 'bout everything but my love
Swallowed, I know, I'm with everyone and yet not
I'm with everyone and yet not
I'm with everyone and yet not

Gotta get away from here
Gotta get away from here
Gotta get away from here
Gotta get away from here

Miss the one that I love alot
Miss the one that I love alot
Miss the one that I love alot
I love
exibições 39.469
Acordes para:
    Composição: Gavin Rossdale Colaboração e revisão:
    • André Carvalho

    0 comentários

    mostrar mais comentários

    Conseguiu tocar?

    1 tocaram 0 ainda não

    Grave um vídeo tocando Swallowed e mande pra gente!

    00:00 / 00:00
    outros vídeos desta música
    repetir qualidade Automático
    Outros vídeos desta música
    00:00 / 00:00
    Automático
    OK