Cifra Club

Cheretim

Cabeçudos

Cifra: Principal (violão e guitarra)
Selo Cifra Club: esta cifra foi revisada para atender aos critérios oficiais da nossa Equipe de Qualidade.
tom: A
Intro:  (A E F#m D)

[Solo 1]

E|--5-4-2---------2-----------5-4-2---2-------------|
A|--------5-5-5-----5-3-2-----------5---5-3-5-3-----|
D|----------------------------------------------2---|
G|--------------------------------------------------|
B|--------------------------------------------------|
E|--------------------------------------------------|

A             E               F#m
Vamo embora agora, não enrola
               D                A         E            F#m        D
Não queima o filme, já está na hora de alegrar vamos todos cantar
A           E             F#m            D
Estava na pista perdida, meu deus vou atropelar
A        E              F#m        D
O toco pode ser certo, tô a fim de arriscar

<- Refrão
F#m     D             A         E             F#m
Não me deixe assim esperando você e o sol chegar
       D           A           B
Se te pego não te solto nunca mais
F#m     D             A         E             F#m
Não me deixe assim esperando você e o sol chegar
       D           A           B
Se te pego não te solto mais
<-

[Solo 1]

A           E                 F#m
Tanto faz, vai, entra de sola
         D             A             E           F#m          D
Um dia clássico bem legal pra te impressionar e levantar minha moral
A           E                 F#m     D
Não fique triste porque quem sabe poderei contar
A       E           F#m          D
Uma história que você também possa gostar

Repete -> Refrão

[Solo 2]
E|--------------------------------------------------|
A|--------------------------------------------------|
D|--------------------------------------------------|
G|------2-1--------------2-1-2-4--------------------|
B|--4-------4-2-4-2---4-----------------------------|
E|---------------------------------5-5-4------------|

[Solo 3] - Parte 1
E|--------------2-4-5-------2-4-5-------------------|
A|--5-3-2-5-3-2-------5-3-2-------5-3-2---2---------|
D|--------------------------------------4---2-2-----|
G|--------------------------------------------------|
B|--------------------------------------------------|
E|--------------------------------------------------|
         - Parte 2
E|--------------2-4-5-------2-4-5-7--9--7-5-7-------|
A|--5-3-2-5-3-2-------5-3-2-------------------------|
D|--------------------------------------------------|
G|--------------------------------------------------|
B|--------------------------------------------------|
E|--------------------------------------------------|

Repete -> Refrão 2x

Repete -> [Solo 1]

Repete -> [Solo 3] - Parte 2
Outros vídeos desta música
15.171 exibições
    • ½ Tom
    • A
    • Bb
    • B
    • C
    • Db
    • D
    • Eb
    • E
    • F
    • F#
    • G
    • Ab
  • Adicionar à lista

Afinação da cifra

Afinador online

    0 comentários

    Ver todos os comentários

    Entre para o Cifra Club PRO

    Tenha acesso a benefícios exclusivos no App e no Site

    • Chega de anúncios

    • Mais recursos no app do Afinador

    • Atendimento Prioritário

    • Aumente seu limite de lista

    • Ajude a produzir mais conteúdo

    Cifra Club Pro

    Aproveite o Cifra Club com benefícios exclusivos e sem anúncios
    Cifra Club Pro
    Aproveite o Cifra Club com benefícios exclusivos e sem anúncios
    OK