Cifra Club

Aprenda

Dia Perfeito

Cachorro Grande

Cifra: Versão 2 (violão e guitarra)
Já pensou em usar uma coleção de roupas do Cifra Club? Responda as perguntas abaixo e nos ajude nessa missão! →
tom: C
Am Dm      C   E Am        Dm       C       E 
   Dia perfeito  pára na esquina e diz good-bye
  Am    Dm      C    E  
Flutua como uma nuvem
 Am  (pausa)                   
She really have a groove
Am Dm    C  E  Am    Dm   C     E 
   Fina flor e disse você é um amor
  Am    Dm      C    E   
E disse algo me entedia
 Am
Era isso que eu sentia

Dm       Dm7 
  E me falou  dos seus romances 
          C            F       G       E7    Am    E
E quando pensa em aprontar ela vai e apronta antes

Am   Dm      C   E     Am  Dm  C  E
   E eu realmente não creio 
 Am     Dm   C  E 
Que de fina flor
 Am                         
O cangalho esteja cheio                                 

Dm     Dm7  
  E me disse esquisitices
          C             F         G            E7     Am  E
E que também vai se guardar para quando o carnaval chegar

Solo:
e|-------------------------------------------------------
B|---------10-6^--6/8--5----------8----------------------
G|-------9----------------------9---10^--10-9--4---------
D|--7-10-------------------7-10------------------7-------
A|-------------------------------------------------------
E|-------------------------------------------------------

e|---------------------------|--------------------------- 
B|---------10-6^--6/8--8/10------10-10-10----------------
G|-------9-------------------|-----8--8--8--9-7-7-9-7----
D|--7-10---------------------------------------9---------
A|---------------------------|---------------------------
E|---------------------------|---------------------------

Dm       Dm7 
  E me falou  dos seus romances 
          C            F       G       E7    Am   E
E quando pensa em aprontar ela vai e apronta antes

Am Dm      C   E Am        Dm       C       E
   Dia perfeito  pára na esquina e diz good-bye
   Am  Dm       C     E  
Flutua como uma nuvem
 Am  (pausa)                   
She really have a groove

Solo final:
e|-------------------------------------------------------
B|---------10-6^--6/8--5----------8----------------------
G|-------9----------------------9---10^--10-9--4---------
D|--7-10-------------------7-10------------------7-------
A|-------------------------------------------------------
E|-------------------------------------------------------

e|------------------------------------------------------- 
B|---------10-6^--6/8--5----------8----------------------
G|-------9----------------------9---10^--10-9------------
D|--7-10-------------------7-10---------------7^---------
A|-------------------------------------------------------
E|-------------------------------------------------------
Composição de Marcelo Gross
Colaboração e revisão:
58.250 exibições
    • ½ Tom
    • A
    • Bb
    • B
    • C
    • Db
    • D
    • Eb
    • E
    • F
    • F#
    • G
    • Ab
  • Adicionar à lista

    0 comentários

    Ver todos os comentários
    00:00 / 00:00
    Outros vídeos desta música
    Repetir Qualidade Automático
    Outros vídeos desta música
    00:00 / 00:00
    Automático

    Cifra Club Pro

    Aproveite o Cifra Club com benefícios exclusivos e sem anúncios
    Cifra Club Pro
    Aproveite o Cifra Club com benefícios exclusivos e sem anúncios
    OK