Cifra Club

Sampa

Caetano Veloso

Cifra: Simplificada (violão e guitarra)
Tom: G
(primeira parte)

C7M                    E7                Am7  Gm7  C7
   Alguma coisa acontece   no meu   coração
     F7M                  A7                     Dm7
Que só quando cruza a Ipiranga e a avenida São João
        G7                     G#°             Am7
É que quando eu cheguei por aqui eu nada entendi
    D7
Da dura poesia concreta de tuas esquinas
                                    Dm7  G7
Da deselegância discreta de tuas meninas
 C7M                  C7                   F7M                F#°
Ainda não havia para mim  Rita Lee, a tua mais completa tradução
C7M     A7        Dm7     G7       E7   A7
Alguma coisa acontece no meu  coração
     D7(9)                  Abm6         G7        C7M   G7
Que só   quando cruza a Ipiranga e a avenida São João

(segunda parte)

       C7M                      E7                 Am7  Gm7  C7
Quando eu te encarei frente a frente não vi o meu rosto
    F7M                    A7                     Dm7
Chamei de mau gosto o que vi, de mau gosto o mau gosto
G7                  G#°                Am7
É que Narciso acha feio o que não é espelho
     D7
E a mente apavora o que ainda não é mesmo velho
                                              Dm7  G7
Nada do que não era antes quando não somos mutantes
  C7M                 C7                        F7M
E foste um difícil começo, afasto o que não conheço
                             F#°
E quem vem de outro sonho feliz de cidade
   C7M      A7         Dm7       G7   E7   A7
Aprende depressa a chamar-te de realidade
   D7(9)                 Abm6      G7        C7M   G7
Porque  és o avesso do avesso do avesso do avesso

(terceira parte)

    C7M               E7                  Am7   Gm7   C7
Do povo oprimido nas filas, nas vilas, favelas
    F7M                A7                     Dm7
Da força da grana que ergue e destrói coisas belas
    G7              G#°                 Am7
Da feia fumaça que sobe apagando as estrelas
    D7
Eu vejo  surgir teus poetas de campos e espaços
                                             Dm7  G7
Tuas oficinas de florestas, teus deuses da chuva
 C7M                 C7                F7M
Pan-américas de Áfricas utópicas, túmulo do samba
                     F#°
Mais possível novo quilombo de Zumbi
      C7M     A7       Dm7      G7       E7    A7
E os novos baianos passeiam na tua   garoa
      D7(9)            Abm6     G7       C7M
E os novos baianos te podem curtir numa boa

(ritmo)

(1ª verso)

(parte 1)
   C7M         E7
E|------------------------------------------|
B|----0----0-0----3----3-3------------------|
G|----0----0-0----1----1-1------------------|
D|----2----2-2----2----2-2------------------|
A|-3-----3----------------------------------|
E|-------------0-----0----------------------|

(parte 2)
   Am7         Gm7   C7
E|------------------------------------------|
B|----1----1-1----3----1-1------------------|
G|----0----0-0----3----3-3------------------|
D|----2----2-2----3----2-2------------------|
A|-0-----0-----------3----------------------|
E|-------------3----------------------------|

(2º verso)

(parte 1)
   F7M         A7
E|------------------------------------------|
B|----1----1-1----2----2-2------------------|
G|----2----2-2----0----0-0------------------|
D|----2----2-2----2----2-2------------------|
A|-------------0-----0----------------------|
E|-1-----1----------------------------------|

(parte 2)
   Dm7
E|----1----1-1----1----1-1------------------|
B|----1----1-1----1----1-1------------------|
G|----2----2-2----2----2-2------------------|
D|-0-----0-----0-----0----------------------|
A|------------------------------------------|
E|------------------------------------------|

(3º verso)

(parte 1)
   G7          G#º
E|------------------------------------------|
B|----0----0-0----3----3-3------------------|
G|----0----0-0----4----4-4------------------|
D|----3----3-3----3----3-3------------------|
A|------------------------------------------|
E|-3-----3-----4-----4----------------------|

(parte 2)
   Am7
E|------------------------------------------|
B|----1----1-1----1----1-1------------------|
G|----0----0-0----0----0-0------------------|
D|----2----2-2----2----2-2------------------|
A|-0-----0-----0-----0----------------------|
E|------------------------------------------|

(4ª verso / 5ª verso)

(parte 1)
   D7
E|----2----2-2----1----2-2----2----2-2------|
B|----1----1-1----1----1-1----1----1-1------|
G|----2----2-2----2----2-2----2----2-2------|
D|-0-----0-----0-----0-----0-----0----------|
A|------------------------------------------|
E|------------------------------------------|

(parte 2)
   D7          Dm7
E|----2----2-2----1----1-1------------------|
B|----1----1-1----1----1-1----0----0-0------|
G|----2----2-2----2----2-2----0----0-0------|
D|-0-----0-----0-----0--------3----3-3------|
A|------------------------------------------|
E|-------------------------3-----3----------|

(6º verso)

(parte 1)
   C7M         C7
E|------------------------------------------|
B|----0----0-0----1----1-1------------------|
G|----0----0-0----3----3-3------------------|
D|----2----2-2----2----2-2------------------|
A|-3-----3-----3-----3----------------------|
E|------------------------------------------|

(parte 2)
  F7M          F#º
E|------------------------------------------|
B|----1----1-1----1----1-1------------------|
G|----2----2-2----2----2-2------------------|
D|----2----2-2----1----1-1------------------|
A|------------------------------------------|
E|-1-----1-----2-----2----------------------|

(7º verso)

(parte 1)
   C7M   A7    Dm7   G7
E|-------------1----------------------------|
B|-0-----2-----1-----0----------------------|
G|-0-----0-----2-----0----------------------|
D|-2-----2-----0-----3----------------------|
A|-3-----0----------------------------------|
E|-------------------3----------------------|

(parte 2)
   E7          A7
E|------------------------------------------|
B|----3----3-3----2----2-2------------------|
G|----1----1-1----0----0-0------------------|
D|----2----2-2----2----2-2------------------|
A|-------------0-----0----------------------|
E|-0-----0----------------------------------|

(8º verso)

(parte 1)
   D7(9)       Abm6  G7    C7M
E|------------------------------------------|
B|----5----5-5----4----0-0----0----0-0------|
G|----5----5-5----4----0-0----0----0-0------|
D|----4----4-4----3----3-3----2----2-2------|
A|-5-----5-----------------3-----3----------|
E|-------------4-----3----------------------|

(parte 2)
   G7
E|------------------------------------------|
B|----0----0-0------------------------------|
G|----0----0-0------------------------------|
D|----3----3-3------------------------------|
A|------------------------------------------|
E|-3-----3----------------------------------|
exibições 176.298
Acordes para:
    Composição: Caetano Veloso Colaboração e revisão:
    • Guilherme Ferreira

    0 comentários

    mostrar mais comentários

    Conseguiu tocar?

    22 tocaram 1 ainda não

    Grave um vídeo tocando Sampa e mande pra gente!

    00:00 / 00:00
    outros vídeos desta música
    repetir qualidade Automático
    Outros vídeos desta música
    00:00 / 00:00
    Automático
    Capítulos
    • Início
    • Tocando trecho da música
    • Acordes 1º verso
    • Tocando o 1º verso
    • Dicas
    • Ensinando ritmo padrão (1º verso)
    • Acordes 2º verso
    • Tocando 2º verso
    • Ensinando ritmo padrão (2º verso)
    • Acordes e dicas 3º verso
    • Tocando 3º verso
    • Ensinando ritmo padrão (3º verso)
    • Acordes 4º e 5º verso
    • Tocando 4º e 5º verso
    • Ensinando ritmo padrão (4º e 5º verso)
    • Acordes e dicas 6º verso
    • Tocando 6º verso
    • Ensinando ritmo padrão (6º verso)
    • Acordes 7º verso
    • Tocando 7º verso
    • Ensinando ritmo (7º verso)
    • Acordes 8º verso
    • Tocando 8º verso
    • Ensinando ritmo padrão (8º verso)
    • Dicas
    • Dicas finais
    • Tocando techo da música
    • Encerramento
    • Extras
    OK