Cifra Club

Sampa

Caetano Veloso

Cifra: Principal
exibições 649.930
Tom: C
(intro) D7(9)  Abm6  G7  C7M  G7(9/13-)

      D7(9)           Abm6    G7     C7M
E|-0-0-0-5---5-5----------------------------|
B|---------------4---4-4-3-----3-1-------0--|
G|-5---------------4-------4-5---------0----|
D|-4---------------3-------3---------2------|
A|-5-------0-----------------------3--------|
E|-----------------4-------3----------------|

              G7(9/13-)
E|---------------5--------------------------|
B|-1p0-----------4--------------------------|
G|-----0-------4----------------------------|
D|-------2---3------------------------------|
A|------------------------------------------|
E|---------3--------------------------------|

(parte I)
C7M                  Bm7(11)   E7(9-)    Am(7M)  Am7  Gm7  C7(9-)
   Alguma coisa acontece   no meu   coração
     F7M                  A7                     Dm7
Que só quando cruza a Ipiranga e a avenida São João
        G7                     G#°             Am7
É que quando eu cheguei por aqui eu nada entendi
  D7(9)        E9/F#
Da dura poesia concreta de tuas esquinas
    D7(9)        E9/F#           Dm7  G7 G7(13-)
Da deselegância discreta de tuas meninas
 C7M                  C7                   F7M                F#°
Ainda não havia para mim  Rita Lee, a tua mais completa tradução
C/G     A7(13-)   Dm7(9)  G7(13-)  E7(9-)  A4(7)  A7
Alguma coisa acontece no meu  coração
     D7(9)                  Abm6         G7        C7M   G7(9/13-)
Que só   quando cruza a Ipiranga e a avenida São João

(parte II)
       C7M                      Bm7(11)
Quando eu te encarei frente a frente
     E7(9-)   Am(7M)  Am7  Gm7  C7(9-)
não vi o meu rosto
    F7M                    A7                     Dm7
Chamei de mau gosto o que vi, de mau gosto o mau gosto
G7                  G#°                Am7
É que Narciso acha feio o que não é espelho
     D7(9)              E9/F#
E a mente apavora o que ainda não é mesmo velho
    D7(9)                E9/F#             Dm7  G7 G7(13-)
Nada do que não era antes quando não somos mutantes
  C7M                 C7                        F7M
E foste um difícil começo, afasto o que não conheço
                             F#°
E quem vem de outro sonho feliz de cidade
   C/G      A7(13-)    Dm7(9)    G7   E7(9-)  A4(7)  A7
Aprende depressa a chamar-te de realidade
   D7(9)                 Abm6      G7        C7M   G7(9/13-)
Porque  és o avesso do avesso do avesso do avesso

(parte III)
    C7M               Bm7(11)    E7(9-)   Am(7M)  Am7  Gm7  C7(9-)
Do povo oprimido nas filas, nas vilas, favelas
    F7M                A7                     Dm7
Da força da grana que ergue e destrói coisas belas
    G7              G#°                 Am7
Da feia fumaça que sobe apagando as estrelas
    D7(9)              E9/F#
Eu vejo  surgir teus poetas de campos e espaços
     D7(9)              E9/F#           Dm7(9)  G7  G7(13-)
Tuas oficinas de florestas, teus deuses da chuva
 C                 C7(9)               F7M
Pan-américas de Áfricas utópicas, túmulo do samba
                     F#°
Mais possível novo quilombo de Zumbi
      C/G     A7(13-)  Dm7(9)   G7(13-)  E7(9-) A4(7)  A7
E os novos baianos passeiam na tua   garoa
      D7(9)            Abm6     G7       C7M
E os novos baianos te podem curtir numa boa

(tabs)

(1ª verso)

(parte 1)
      C7M         Bm7(11) E7(9-)
E|-0--0----0-0----0----1--------------------|
B|-0--0----0-3----3----3--------------------|
G|-0--0----0-2----2----1--------------------|
D|------------------------------------------|
A|-3-----------2----------------------------|
E|-------3-----------0----------------------|

(parte 2)
      Am7M  Am7 Gm7     C7(9-)
E|------------------------------------------|
B|-1--1----1-3----3----2--------------------|
G|-1--1----0-3----3----3--------------------|
D|-2--2----2-3----3----2--------------------|
A|-0-----------------3----------------------|
E|-------0-----3----------------------------|

(2º verso)

(parte 1)
      F7M       A7
E|------------------------------------------|
B|-1--1----1-2----2----2--------------------|
G|-2--2----2-0----0----0--------------------|
D|-2--2----2-2----2----2--------------------|
A|-------------0-----0----------------------|
E|-1-----1----------------------------------|

(parte 2)
      Dm7
E|-1--1----1-1----1----1--------------------|
B|-1--1----1-1----1----1--------------------|
G|-2--2----2-2----2----2--------------------|
D|-0-----------0----------------------------|
A|-------0-----------0----------------------|
E|------------------------------------------|

(3º verso)

(parte 1)
          G7          G#º
E|------------------------------------------|
B|--------3----3-3----3----3----------------|
G|--------4----4-4----4----4----------------|
D|--------3----3-3----3----3----------------|
A|-0----------------------------------------|
E|---4-3-----3-----4-----4------------------|

(parte 2)
      Am7
E|------------------------------------------|
B|-1--1----1-1----1----1--------------------|
G|-0--0----0-0----0----0--------------------|
D|-2--2----2-2----2----2--------------------|
A|-0-----------0----------------------------|
E|-------0-----------0----------------------|

(4ª verso e 5ª verso)

      D7(9)
E|------------------------------------------|
B|-------5-5---5-5---5-5---5-5----5-5---5-5-|
G|-------5-5---5-5---5-4---5-5----5-5---5-5-|
D|-------4-4---4-4---4-4---4-4----4-4---4-4-|
A|-3-4-5-----------5------------5-----------|
E|-----------5-----------5------------5-----|

                  Dm7         G7    G7(13-)
E|------------------------------------------|
B|---5-5---5-5-6--6----6-6----3----4--------|
G|---5-5---5-5-5--5----5-5----4----4--------|
D|---4-4---4-4-3--3----3-3----3----3--------|
A|-5-----------5----------------------------|
E|-------5-----------5-----3-----3----------|

(6º verso)

(parte 1)
      C7M         C7
E|------------------------------------------|
B|-5--5----5-5----5----5--------------------|
G|-4--4----4-4----3----3--------------------|
D|-5--5----5-5----5----5--------------------|
A|-3-----3-----3-----3----------------------|
E|------------------------------------------|

(parte 2)
      F7M         F#º
E|------------------------------------------|
B|-1--1----1-1----1----1--------------------|
G|-2--2----2-2----2----2--------------------|
D|-2--2----2-2----1----1--------------------|
A|------------------------------------------|
E|-1-----1-----2-----2----------------------|

(7º verso)

(parte 1)
      C/G      A7(13-)  Dm7(9)   G7(13-)
E|-0----------------------------------------|
B|-1--------6--------5--------4-------------|
G|-0--------6--------5--------4-------------|
D|-2--------5--------3--------3-------------|
A|-3--------0--------5----------------------|
E|-3--------------------------3-------------|

(parte 2)
      E7(9-)           A4(7)          A7
E|------------------------------------------|
B|----3--3--3--3--3--3--2--2------2---------|
G|----1--1--1--1--1--0--0--0------0---------|
D|----3--3--3--3--3--2--2--2------2---------|
A|-------------------0--------0-------------|
E|-0--------0-------------------------------|

(8º verso)

(parte 1)
      D7(9)     Abm6      G7  C7M
E|----------------------------0----0-0------|
B|-5--5----5-4----4----3------0----0-0------|
G|-5--5----5-4----4----4------0----0-0------|
D|-4--4----4-3----3----3--------------------|
A|-5-----------------------3-----3----------|
E|-------5-----4-----3----------------------|

(parte 2)
      G7(9/13-)
E|---5-5------------------------------------|
B|---4-4------------------------------------|
G|---4-4------------------------------------|
D|---3-3------------------------------------|
A|------------------------------------------|
E|-3----------------------------------------|

(dicas - como criar variações na levada de Samba)

(contando a marcação dos tempos dentro do compasso)

1 2 1 2
E|------------------------------------------|
B|------------------------------------------|
G|------------------------------------------|
D|------------------------------------------|
A|-0---------------0------------------------|
E|---------0---------------0----------------|

(contando a subdivisão interna de cada tempo)

1 2 3 4 1 2 3 4 1 2 3 4 1 2 3 4
E|------------------------------------------|
B|---1-1-1---1-1-1-------1-------1----------|
G|---2-2-2---2-2-2-----2-------2------------|
D|---2-2-2---2-2-2---2-------2--------------|
A|-0---------------0------------------------|
E|---------0---------------0----------------|

   1 2 3 4 1 2 3 4 1 2 3 4 1 2 3 4
E|------------------------------------------|
B|---1---1---1---1---1---1---1---1----------|
G|---2---2---2---2---2---2---2---2----------|
D|---2---2---2---2---2---2---2---2----------|
A|-0---------------0------------------------|
E|---------0---------------0----------------|

   1 2 3 4 1 2 3 4 1 2 3 4 1 2 3 4
E|------------------------------------------|
B|-----1-----1---1-----1-----1---1----------|
G|-----2-----2---2-----2-----2---2----------|
D|-----2-----2---2-----2-----2---2----------|
A|-0---------------0------------------------|
E|---------0---------------0----------------|

   1 2 3 4 1 2 3 4 1 2 3 4 1 2 3 4
E|-0-----0-----0---0-0---0---1-1-1----------|
B|-0-----0-----0---3-3---3---3-3-3----------|
G|-0-----0-----0---2-2---2---1-1-1----------|
D|------------------------------------------|
A|-3---------------2------------------------|
E|---------3---------------0----------------|

   1 2 3 4 1 2 3 4 1 2 3 4 1 2 3 4 1 2 3
E|------------------------------------------|
B|-----1-----1---3-------3-------2-----1----|
G|-----1-----0---3-------3-----3-------2----|
D|-----2-----2---3-------3---2---------2----|
A|-0-----------------------3----------------|
E|---------0-------3---------------1--------|
Acordes para:

    0 comentários

      mostrar mais comentários

      Conseguiu tocar?

      37tocaram1ainda não

      Grave um vídeo tocando Sampa e mande pra gente!

      00:00 / 00:00
      outros vídeos desta música
      repetirqualidadeautomática
      Outro vídeos desta música
        00:00 / 00:00
        automática
        Capítulos
        • Inicío
        • Tocando trecho da música
        • Acordes da introdução
        • Tocando introdução
        • Ensinando dedilhado introdução
        • Acordes do 1º verso
        • Tocando 1º verso
        • Ensinando ritmo padrão (1º verso)
        • Acordes do 2º verso
        • Tocando 2º verso
        • Ensinando ritmo padrão (2º verso)
        • Acordes do 3º verso
        • Tocando 3º verso
        • Ensinando ritmo padrão (3º verso)
        • Acordes do 4º e 5º verso
        • Tocando 4º e 5º verso
        • Ensinando ritmo (4º e 5º verso)
        • Acordes do 6º verso
        • Tocando 6º verso
        • Ensinando ritmo padrão (6º verso)
        • Acordes do 7º verso
        • Tocando 7º verso
        • Ensinando ritmo (7º verso)
        • Acordes do 8º verso
        • Tocando o 8º verso
        • Ensinando ritmo padrão (8º verso)
        • Tocando trecho 2ª e 3ª parte
        • Dicas de ritmo (samba)
        • Encerramento
        OK