Cifra Club

Aprenda

Sampa

Caetano Veloso

Cifra: Principal (violão e guitarra)
tom: C
[Intro] D7(9)  Abm6  G7  C7M  G7(9/13-)

      D7(9)           Abm6    G7     C7M
E|-0-0-0-5---5-5----------------------------|
B|---------------4---4-4-3-----3-1-------0--|
G|-5---------------4-------4-5---------0----|
D|-4---------------3-------3---------2------|
A|-5-------0-----------------------3--------|
E|-----------------4-------3----------------|

              G7(9/13-)
E|---------------5--------------------------|
B|-1p0-----------4--------------------------|
G|-----0-------4----------------------------|
D|-------2---3------------------------------|
A|------------------------------------------|
E|---------3--------------------------------|

[Primeira Parte]

   C7M       Bm7(11) E7(9-)
E|-0--0----0-0----0----1--------------------|
B|-0--0----0-3----3----3--------------------|
G|-0--0----0-2----2----1--------------------|
D|------------------------------------------|
A|-3-----------2----------------------------|
E|-------3-----------0----------------------|

   Am7M  Am7 Gm7     C7(9-)
E|------------------------------------------|
B|-1--1----1-3----3----2--------------------|
G|-1--1----0-3----3----3--------------------|
D|-2--2----2-3----3----2--------------------|
A|-0-----------------3----------------------|
E|-------0-----3----------------------------|

   F7M       A7
E|------------------------------------------|
B|-1--1----1-2----2----2--------------------|
G|-2--2----2-0----0----0--------------------|
D|-2--2----2-2----2----2--------------------|
A|-------------0-----0----------------------|
E|-1-----1----------------------------------|

   Dm7
E|-1--1----1-1----1----1--------------------|
B|-1--1----1-1----1----1--------------------|
G|-2--2----2-2----2----2--------------------|
D|-0-----------0----------------------------|
A|-------0-----------0----------------------|
E|------------------------------------------|

       G7          G#º
E|------------------------------------------|
B|--------3----3-3----3----3----------------|
G|--------4----4-4----4----4----------------|
D|--------3----3-3----3----3----------------|
A|-0----------------------------------------|
E|---4-3-----3-----4-----4------------------|

   Am7
E|------------------------------------------|
B|-1--1----1-1----1----1--------------------|
G|-0--0----0-0----0----0--------------------|
D|-2--2----2-2----2----2--------------------|
A|-0-----------0----------------------------|
E|-------0-----------0----------------------|

       D7(9)
E|------------------------------------------|
B|-------5-5---5-5---5-5---5-5----5-5---5-5-|
G|-------5-5---5-5---5-4---5-5----5-5---5-5-|
D|-------4-4---4-4---4-4---4-4----4-4---4-4-|
A|-3-4-5-----------5------------5-----------|
E|-----------5-----------5------------5-----|

               Dm7       G7        G7(13-)
E|------------------------------------------|
B|---5-5---5-5-6--6----6-3----3----4--------|
G|---5-5---5-5-5--5----5-4----4----4--------|
D|---4-4---4-4-3--3----3-3----3----3--------|
A|-5-----------5----------------------------|
E|-------5-----------5-----3-----3----------|

   C7M         C7
E|------------------------------------------|
B|-5--5----5-5----5----5--------------------|
G|-4--4----4-4----3----3--------------------|
D|-5--5----5-5----5----5--------------------|
A|-3-----3-----3-----3----------------------|
E|------------------------------------------|

   F7M         F#º
E|------------------------------------------|
B|-1--1----1-1----1----1--------------------|
G|-2--2----2-2----2----2--------------------|
D|-2--2----2-2----1----1--------------------|
A|------------------------------------------|
E|-1-----1-----2-----2----------------------|

   C/G      A7(13-)  Dm7(9)   G7(13-)
E|-0----------------------------------------|
B|-1--------6--------5--------4-------------|
G|-0--------6--------5--------4-------------|
D|-2--------5--------3--------3-------------|
A|-3--------0--------5----------------------|
E|-3--------------------------3-------------|

   E7(9-)            A4(7)  A7
E|------------------------------------------|
B|----3--3--3--3--3--3------2--2------2-----|
G|----1--1--1--1--1--0------0--0------0-----|
D|----3--3--3--3--3--2------2--2------2-----|
A|-------------------0------------0---------|
E|-0--------0-------------------------------|

   D7(9)     Abm6      G7  C7M
E|----------------------------0----0-0------|
B|-5--5----5-4----4----3------0----0-0------|
G|-5--5----5-4----4----4------0----0-0------|
D|-4--4----4-3----3----3--------------------|
A|-5-----------------------3-----3----------|
E|-------5-----4-----3----------------------|

   G7(9/13-)
E|---5-5------------------------------------|
B|---4-4------------------------------------|
G|---4-4------------------------------------|
D|---3-3------------------------------------|
A|------------------------------------------|
E|-3----------------------------------------|

C7M               Bm7(11)   E7(9-)  Am7M  
Alguma coisa acontece   no meu coração

( Am7  Gm7  C7(9-) )

     F7M                  A7                     Dm7
Que só quando cruza a Ipiranga e a avenida São João
        G7                     G#°             Am7
É que quando eu cheguei por aqui eu nada entendi
    D7(9)        
Da dura poesia concreta de tuas esquinas
                                      Dm7  G7  G7(13-)
Da deselegância discreta de tuas meninas
 C7M                  C7        
Ainda não havia para mim Rita Lee
       F7M                F#°
A tua mais completa tradução
C/G     A7(13-)   Dm7(9)  G7(13-)  E7(9-)  A4(7)  A7
Alguma coisa acontece no meu  coração
     D7(9)                Abm6         
Que só quando cruza a Ipiranga 
        G7        C7M   G7(9/13-)
E a avenida São João

[Segunda Parte]

       C7M                      Bm7(11)
Quando eu te encarei frente a frente
     E7(9-)   Am(M  Am7  Gm7  C7(9-)
Não vi o meu rosto
    F7M                    A7                     Dm7
Chamei de mau gosto o que vi, de mau gosto o mau gosto
G7                  G#°                Am7
É que Narciso acha feio o que não é espelho
     D7(9)              
E a mente apavora o que ainda não é mesmo velho
                                              Dm7  
Nada do que não era antes quando não somos mutantes

( G7  G7(13-) )

   C7M               C7                         F7M
E foste um difícil começo, afasto o que não conheço
                                    F#°
E quem vem de outro sonho feliz de cidade
   C/G      A7(13-)    Dm7(9)    G7   E7(9-)  
Aprende depressa a chamar-te de realidade

( A4(7)  A7 )

     D7(9)              Abm6      
Porque és o avesso do avesso 
     G7        C7M   G7(9/13-)
Do avesso do avesso

[Terceira Parte]

    C7M               Bm7(11)    
Do povo oprimido nas filas 
     E7(9-)   Am7M  Am7  Gm7  C7(9-)
Nas vilas, favelas
    F7M                A7                     Dm7
Da força da grana que ergue e destrói coisas belas
    G7              G#°                 Am7
Da feia fumaça que sobe apagando as estrelas
    D7(9)       
Eu vejo surgir teus poetas de campos e espaços
     
Tuas oficinas de florestas
                 Dm7(9)  G7  G7(13-)
Teus deuses da chuva
 C                   C7(9)                   F7M
Pan-américas de Áfricas utópicas, túmulo do samba
                       F#°
Mais possível novo quilombo de Zumbi
      C/G     A7(13-)  Dm7(9)   G7(13-)  E7(9-) 
E os novos baianos passeiam na tua   garoa

( A4(7)  A7 )

      D7(9)            Abm6     G7          C7M
E os novos baianos te podem curtir numa boa


Composição de Caetano Veloso
845.455 exibições
  • Simplificar cifra
    • ½ Tom
    • A
    • Bb
    • B
    • C
    • Db
    • D
    • Eb
    • E
    • F
    • F#
    • G
    • Ab
  • Adicionar à lista

    0 comentários

    Ver todos os comentários
    00:00 / 00:00
    Outros vídeos desta música
    Repetir Qualidade Automático
    Outros vídeos desta música
    00:00 / 00:00
    Automático
    Capítulos
    • Inicío
    • Tocando trecho da música
    • Acordes da introdução
    • Tocando introdução
    • Ensinando dedilhado introdução
    • Acordes do 1º verso
    • Tocando 1º verso
    • Ensinando ritmo padrão (1º verso)
    • Acordes do 2º verso
    • Tocando 2º verso
    • Ensinando ritmo padrão (2º verso)
    • Acordes do 3º verso
    • Tocando 3º verso
    • Ensinando ritmo padrão (3º verso)
    • Acordes do 4º e 5º verso
    • Tocando 4º e 5º verso
    • Ensinando ritmo (4º e 5º verso)
    • Acordes do 6º verso
    • Tocando 6º verso
    • Ensinando ritmo padrão (6º verso)
    • Acordes do 7º verso
    • Tocando 7º verso
    • Ensinando ritmo (7º verso)
    • Acordes do 8º verso
    • Tocando o 8º verso
    • Ensinando ritmo padrão (8º verso)
    • Tocando trecho 2ª e 3ª parte
    • Dicas de ritmo (samba)
    • Encerramento

    Cifra Club Pro

    Aproveite o Cifra Club com benefícios exclusivos e sem anúncios
    Cifra Club Pro
    Aproveite o Cifra Club com benefícios exclusivos e sem anúncios
    OK