Cifra Club

João e Maria

Chico Buarque

Cifra: Principal (violão e guitarra)
tom: Am
[Intro] Am9  F6  Am  F9
        Am  F6  Am  F9  Am

[tab - intro]

[Parte 1 De 4]
      Am9        F6            Am
E|----5-------------------------0---------0-|
B|----0---5------3---1-0h1p0------1---------|
G|----5-----5----2-----------2------2---2---|
D|-7--7-7-----7--0-0------------------2-----|
A|----0-------------------------0-----------|
E|---------------1--------------------------|

Parte 2 De 4
   F9              Am         F6
E|-3-1-0h1p0--------5-------------------0-1-|
B|-1--------3-1-0------5------3---0-1-3-----|
G|-2---------------------5----2-------------|
D|-3-----------------7-----7--0-0-----------|
A|-----------------0------------------------|
E|----------------------------1-------------|

Parte 3 De 4
   Am               F9
E|-0h1p0---------0--3-1-0h1p0---------------|
B|-------1---0-1----1---------3-1-0---------|
G|---------2--------2-----------------------|
D|------------------3-----------------------|
A|-0----------------------------------------|
E|------------------------------------------|
  
Parte 4 De 4
   Am
E|-------------5----------------------------|
B|-------0-1/5------------------------------|
G|-2-1-2------------------------------------|
D|------------------------------------------|
A|-0----------------------------------------|
E|------------------------------------------|

[Primeira Parte] 

[tab - primeira parte]

[Parte 1 De 5]
   Dm7          Bm7(5-)     C                       
E|-----1---1--------------------0-----------|
B|-----1---1--------3---3-------1-----------|
G|---2---2----------2---2-----0-------------|
D|-0---------0----3---3----------2---2------|
A|--------------2---------2-3---------------|
E|---------------------------------0--------|
                
Parte 2 De 5
   Am           Dm7         G7                                         
E|-----0---0--------1---1-------1---1-------|
B|-----1---1--------1---1-------0---0-------|
G|---2---2--------2---2-------0---0---------|
D|--------------0---------0-----------------|
A|-0---------0------------------------------|
E|--------------------------3---------3-----|

Parte 3 De 5
   C                        B7         B7/F#                
E|----0---0-------0-------------2---2-------|
B|----1---1-------1-------------4---4-------|
G|--0---0---0---0---0---------2---2---------|
D|--------------------2p0-------------------|
A|-3----------3-----------3-2---------2-----|
E|--------------------------------------2---|

Parte 4 De 5
             Em                C                                
E|---2---2-------------------------0---0----|
B|---4---4-------0---0-------------1---1----|
G|-2---2---------0---0-----------0---0------|
D|-------------2---2-------2-0--------------|
A|---------2-----------2-------3------------|
E|-----------0-----------0------------------|

Parte 5 De 5
       F7          E7              Am                                    
E|-------------1-------0-------------0------|
B|---------1---1-------3-------------1------|
G|---------2---------1---------------0------|
D|-------1---1-----------3-2-0--------------|
A|-----------------------------3-2-0----2-3-|
E|-3-2-1---------1-0------------------------|

                  Dm7
Agora eu era o herói 
           Bm7(5-)           C  Am
E o meu cavalo só falava inglês
               Dm7
A noiva do cowboy 
       G7                  C
Era você além das outras três
                  B7
Eu enfrentava os batalhões
B7/F#               Em
      Os alemães e seus canhões
                  C
Guardava o meu bodoque e ensaiava 
   F7               E7  Am
O rock para as matinês

[Segunda Parte] 

[tab - segunda parte]

[Parte 1 De 5]
   Dm7          Bm7(5-)     C                       
E|-----1---1--------------------0-----------|
B|-----1---1--------3---3-------1-----------|
G|---2---2----------2---2-----0-------------|
D|-0---------0----3---3----------2---2------|
A|--------------2---------2-3---------------|
E|---------------------------------0--------|
        
Parte 2 De 5
   Am           Dm7         Bm7(5-)                                         
E|-----0---0--------1---1-------------------|
B|-----1---1--------1---1-------3---3-------|
G|---2---2--------2---2---------2---2-------|
D|--------------0---------0---3---3---------|
A|-0---------0--------------2---------2-----|
E|------------------------------------------|

Parte 3 De 5
   Gm6/Bb       A7  G/B  A7/C#  Dm7
E|---------------------------------1---1----|
B|-----3---3----2----3----5--------1---1----|
G|-----0---0----0----0----0-0----2---2------|
D|---2---2---2----2----0-------0---------0--|
A|-1------------0----2----4-----------------|
E|------------------------------------------|

Parte 4 De 5
   G7          C             F7 
E|-----1---1-------0---0-------------1------|
B|-----0---0-------1---1---------1---1------|
G|---0---0-------0---0-----------2----------|
D|-----------------------------1---1--------|
A|-------------3----------------------------|
E|-3---------3-----------3-2-1----------1---|

Parte 5 De 5
   Bb7M        E7          Am9    
E|---------1-------------------0---0--------|
B|-----3---3-------3---3-------1---1--------|
G|-----2-----------1---1-----4---4----------|
D|---3---3-------0---0---------------2------|
A|-1---------1-------------0----------------|
E|-------------0---------0------------------|

E|-----0---0--------------------------------|
B|-----1---1--------------------------------|
G|---4---4----------------------------------|
D|-----------2------------------------------|
A|-0----------------------------------------|
E|------------------------------------------|

                Dm7
Agora eu era o rei
         Bm7(5-)          C   Am
Era o bedel e era também juiz
              Dm7            Bm7(5-)
E pela minha lei a gente era obrigado 
         Gm6/Bb  
A ser feliz
A7  G/B    A7/C#  Dm7
    E     vo_____cê 
           G7
Era a princesa 
               C
Que eu fiz coroar
           F7              Bb7M
E era tão linda de se admirar 
            E7            Am9
Que andava nua pelo meu país

[Refrão]

[tab - refrão - primeira estrofe]

[Parte 1 De 3]
   Am9         E/G#       A/G
E|-----0---0--------------------------------|
B|-----1---1-------5---5------2---2---------|
G|---4---4---------4---4------2---2---------|
D|---------------2---2------2---2-----------|
A|-0---------0------------------------------|
E|-------------4---------4-3--------3-2-----|

Parte 2 De 3
   Dm/F           Bm7(5-)     C    
E|-----1--------------1---1-------0---------|
B|-----3-3------------3---3-------1---------|
G|---2--------------2---2-------0---0-------|
D|----------2p0-----------------------2p0---|
A|--------------3-2---------2-3-----------3-|
E|-1----------------------------------------|
Parte 3 De 3
   Bb7M        E7/B
E|------------------------------------------|
B|-----3---3-------3------------------------|
G|-----2---2-------1------------------------|
D|---3---3-------1---1---1------------------|
A|-1---------1-2----------------------------|
E|---------------------0--------------------|
               
               E/G#
Não, não fuja não
            A/G
Finja que agora 
                   Dm/F
Eu era o seu brinquedo
Bm7(5)                   C
       Eu era o seu pião
Bb7M              E7/B
O seu bicho preferido

[tab - refrão - segunda estrofe]

[Parte 1 De 3]
   Am9         E7/B        A7/C#
E|-----0---0-------0---0-------5---5--------|
B|-----1---1-------3---3-------5---5--------|
G|---4---4-------1---1-------0---0----------|
D|------------------------------------------|
A|-0---------0-2---------2-4---------4------|
E|------------------------------------------|

Parte 2 De 3
   Dm7            Bm7(5-)     C    Am7 Am7/G                   
E|-----1---1---------------------0----------|
B|-----1---1---------3---3-------1----------|
G|---2---2-----------2---2-------0----------|
D|-0---------------3---3-------------2---2--|
A|-----------0-1-2---------0-2-3---0--------|
E|-------------------------------------3----|

Parte 3 De 3
  F#m7(5-) F7M  E7 Am9
E|---------------------0---0-------0----0---|
B|---1-----1----3------1---1-------1----1---|
G|---2-----2----1----4---4-------4----4-----|
D|---2-----2----0------------2--------------|
A|-----------------0-----------0----------0-|
E|-2-----1----0-----------------------------|

 Am           E7/B
Vem, me dê a mão
          A7/C#           
A gente agora 
              Dm7
Já não tinha medo
Bm7(5-)                 C
        No tempo da maldade 
   Am7      Am7/G   F#m7(5-)  
Acho que a gente   nem 
F7M     E7    Am9
    Tinha nascido

[Terceira Parte] 

[tab - terceira parte]

[Parte 1 De 5]
   Dm7          Bm7(5-)     C                       
E|-----1---1--------------------0-----------|
B|-----1---1--------3---3-------1-----------|
G|---2---2----------2---2-----0-------------|
D|-0---------0----3---3----------2---2------|
A|--------------2---------2-3---------------|
E|---------------------------------0--------|
        
Parte 2 De 5
   Am           Dm7         Bm7(5-)                                         
E|-----0---0--------1---1-------------------|
B|-----1---1--------1---1-------3---3-------|
G|---2---2--------2---2---------2---2-------|
D|--------------0---------0---3---3---------|
A|-0---------0--------------2---------2-----|
E|------------------------------------------|

Parte 3 De 5
   Gm6/Bb       A7  G/B  A/C#  Dm7
E|---------------------------------1---1----|
B|-----3---3----2----3----5--------1---1----|
G|-----0---0----0----0----0-0----2---2------|
D|---2---2---2----2----0-------0---------0--|
A|-1------------0----2----4-----------------|
E|------------------------------------------|

Parte 4 De 5
   G7          C             F7 
E|-----1---1-------0---0-------------1------|
B|-----0---0-------1---1---------1---1------|
G|---0---0-------0---0-----------2----------|
D|-----------------------------1---1--------|
A|-------------3----------------------------|
E|-3---------3-----------3-2-1----------1---|

Parte 5 De 5
   Bb7M        E7          Am9    
E|---------1-------------------0---0--------|
B|-----3---3-------3---3-------1---1--------|
G|-----2-----------1---1-----4---4----------|
D|---3---3-------0---0----------------------|
A|-1---------1-------------0----------------|
E|-------------0---------0-------------0----|

             Dm7
Agora era fatal 
              Bm7(5-)               
Que o faz-de-conta 
              C  Am
Terminasse assim
                  Dm7
Pra lá desse quintal 
         Bm7(5-)                Gm6/Bb
Era uma noite que não tem mais fim
A7  G/B   A7/C#  Dm7         G7
   Pois  vo_____cê sumiu no mundo 
           C
Sem me avisar
           F7
E agora eu era 
                  Bb7M
Um louco a perguntar 
               E7
O que é que a vida vai 
          Am9  
Fazer de mim

[Final] Am9  Am/G  Am9  F7M  Am9

[tab - final]

   F7M         Am9          F7M         Am9
E|-----0---0-------0---0--------0---0---0---|
B|-----1---1-------1---1--------1---1---1---|
G|---2---2-------4---4--------2---2-----4---|
D|--------------------------------------2---|
A|-------------0------------------------0---|
E|-1---------0------------0-1---------0-----|
00:00 / 00:00
Outros vídeos desta música
Repetir
Outros vídeos desta música
Composição de Chico Buarque / Sivuca
1.420.808 exibições
    • ½ Tom
    • Am
    • Bbm
    • Bm
    • Cm
    • C#m
    • Dm
    • Ebm
    • Em
    • Fm
    • F#m
    • Gm
    • G#m
  • Adicionar à lista

    0 comentários

    Ver todos os comentários

    Entre para oCifra Club PRO

    Tenha acesso a benefícios exclusivos no App e no Site

    • Chega de anúncios

    • Prioridade de compra em lançamentos

    • Mais recursos no app do Afinador

    • Atendimento Prioritário

    • Descontos nos produtos Cifra Club

    • Ajude a produzir mais conteúdo

    00:00 / 00:00
    Capítulos
    • Tocando a Música
    • Dicas Iniciais
    • Acordes da Primeira Parte
    • Tocando Primeira Parte
    • Ensinando Primeira Parte
    • Acordes da Segunda Parte
    • Tocando Segunda Parte
    • Ensinando Segunda Parte
    • Acordes do Refrão
    • Tocando Refrão
    • Ensinando Refrão
    • Dicas Terceira Parte
    • Tocando Terceira Parte - Final
    • Ensinando Final
    • Tocando Introdução
    • Ensinando Introdução
    • Encerramento

    Cifra Club Pro

    Aproveite o Cifra Club com benefícios exclusivos e sem anúncios
    Cifra Club Pro
    Aproveite o Cifra Club com benefícios exclusivos e sem anúncios
    OK