Cifra Club

Aprenda

Detras De Ti

Caifanes

Cifra: Principal (violão e guitarra)
tom: Am
E|----------------------------------------------|
B|----------------------------------------------|
G|----------------------------------------------|
D|-0-5-0-4-0--0-5-0-4-0--0-5-0-4-0--0-5-0-4-0---|
A|----------------------------------------------|
E|----------------------------------------------|

OJO: en todos los parrafos menos los coros si le ponen mucha
atención a la rola podran escuchar que una guitarra esta raspando
la cuarta cuerda con la plumilla de izq. a der. son cuatro raspados
por segundo en esta parte que empieza a cantar ponganle atención
y se escucha

   voy detras de ti como un perro infeliz

E|-7-7-----7------7---7------7------7---7/10----|
B|-7-7-----7------7---7------7------7---7-------|
G|----------------------------------------------|
D|----------------------------------------------|
A|----------------------------------------------|
E|----------------------------------------------|

   voy detras de ti como una sombra vil

E|-7-7-----7------7---7----7---10--0---5--------|
B|-7-7-----7------7---7----7---10--0---5--------|
G|----------------------------------------------|
D|----------------------------------------------|
A|----------------------------------------------|
E|----------------------------------------------|

    ya no quiero anda  ar    detras de ti

E|----------------------------------------------|
B|----------------------------------------------|
G|----------------------------------------------|
D|-3-----------2-----5--4-----------------------|
A|-3-----------2-----5--4-----------------------|
E|-1-----------0-----3--2-----------------------|

E|----------------------------------------------|
B|----------------------------------------------|
G|----------------------------------------------|
D|-0-5-0-4-0--0-5-0-4-0--0-5-0-4-0--0-5-0-4-0---|
A|----------------------------------------------|
E|----------------------------------------------|

   voy detras de ti como nunca nadie fue


E|-7-7-----7------7---7------7------7---7-5-0-0-|
B|-7-7-----7------7---7------7------7---7-7-0-0-|
G|----------------------------------------------|
D|----------------------------------------------|
A|----------------------------------------------|
E|----------------------------------------------|


  voy detras de ti        como nunca nadie andara

E|-7-7-----5/7---7-7-7-7----------7-------7-----5-5-5-|
B|-7-7-----7-----7-7-7-7----------7-------7-----7-7-7-|
G|----------------------------------------------------|
D|----------------------------------------------------|
A|----------------------------------------------------|
E|----------------------------------------------------|

  ya no quiero anda  ar    detras de ti

E|----------------------------------------------|
B|----------------------------------------------|
G|----------------------------------------------|
D|-3-----------2-----5--4-----------------------|
A|-3-----------2-----5--4-----------------------|
E|-1-----------0-----3--2-----------------------|

E|------------------------------|
B|------------------------------|
G|------------------------------|
D|-0-5-0-4-0--0-5-0-4-0---0-0-0-|
A|------------------------------|
E|------------------------------|

 nunca volteas     nunca me miras

E|-5-5-5---7-7-7--5-5-5-----7-7-7---------------|
B|-6-6-6---8-8-8--6-6-6-----8-8-8---------------|
G|-5-5-5---7-7-7--5-5-5-----7-7-7---------------|
D|----------------------------------------------|
A|----------------------------------------------|
E|----------------------------------------------|

   ya lo sabes    y nunca detras de ti

E|-5-5-5---7-7-7--5-5-5-----7-7-7-5-------------|
B|-6-6-6---8-8-8--6-6-6-----8-8-8-6-------------|
G|-5-5-5---7-7-7--5-5-5-----7-7-7-5-------------|
D|----------------------------------------------|
A|----------------------------------------------|
E|----------------------------------------------|

E|----------------------|
B|----------------------|
G|----------------------|
D|-0-5-0-4-0--0-5-0-4-0-|
A|----------------------|
E|----------------------|


los tres sietes que estan entre parentesis son armonicos
artificiales tocandolo con la llema del dedo dejandolo sonar
y el siete que tiene las cuatro cruces quiere decir que
se afloja la cuerda con la palanca cuatro veces ojala
me entiendan

E|-------(7)-------------------------|
B|-(7)-------------------------------|
G|----(7)---7++++--9^-9--------------|
D|----------------------4-5-7-7-5-4--|
A|----------------------------------5|
E|-----------------------------------|

   voy detras de ti recogiendote la piel

E|-7-7-----7------7---7------7------7---7-5-0-0-|
B|-7-7-----7------7---7------7------7---7-7-0-0-|
G|----------------------------------------------|
D|----------------------------------------------|
A|----------------------------------------------|
E|----------------------------------------------|

  voy recogiendo lagrimas         en un vaso de papel

E|-7-7-----7------7---7--7-7-7-7-7---7---7-------7--7-----|
B|-7-7-----7------7---7--7-7-7-7-7---7---7-------7--7-----|
G|--------------------------------------------------------|
D|--------------------------------------------------------|
A|--------------------------------------------------------|
E|--------------------------------------------------------|

 ya no quiero anda  ar    detras de ti

E|----------------------------------------------|
B|----------------------------------------------|
G|----------------------------------------------|
D|-3-----------2-----5--4-----------------------|
A|-3-----------2-----5--4-----------------------|
E|-1-----------0-----3--2-----------------------|

E|-----------------------------|
B|-----------------------------|
G|-----------------------------|
D|-0-5-0-4-0--0-5-0-4-0---0-0-0|
A|-----------------------------|
E|-----------------------------|

 nunca volteas     nunca me miras

E|-5-5-5---7-7-7--5-5-5-----7-7-7---------------|
B|-6-6-6---8-8-8--6-6-6-----8-8-8---------------|
G|-5-5-5---7-7-7--5-5-5-----7-7-7---------------|
D|----------------------------------------------|
A|----------------------------------------------|
E|----------------------------------------------|

   ya lo sabes    y nunca detras    de ti

E|-5-5-5---7-7-7--5-5-5-----7-7-7-5-------------|
B|-6-6-6---8-8-8--6-6-6-----8-8-8-6-------------|
G|-5-5-5---7-7-7--5-5-5-----7-7-7-5-------------|
D|----------------------------------------------|
A|----------------------------------------------|
E|----------------------------------------------|

el numero 10 que tiene el signo de interrogación quiere decir
que unicamente se golpea ese traste con el dedo si tocarlo con
la plumilla si le ponen atención a la rola la van a escuchar

E|---------------------------------------------------------|
B|-----------------8---------8/10-10-10h13-10-8-10-8-7-----|
G|-10| ?-9/~7~--7/9-10---10-9-7------------------------------|
D|---------------------------------------------------------|
A|---------------------------------------------------------|
E|---------------------------------------------------------|

E|---------------------------------------------------------|
B|-15-15h18p15-18/20-18-18-18--18-20^20^20^----------------|
G|-14---------------------------------------17-17-19-------|
D|---------------------------------------------------------|
A|---------------------------------------------------------|
E|---------------------------------------------------------|

E|---------------------------------------------------------|
B|-18-18-18-18-18-18-~20~-18-18-~20~-------18-20-----------|
G|-----------------------------------17-19-----------------|
D|---------------------------------------------------------|
A|---------------------------------------------------------|
E|---------------------------------------------------------|

esta parte que esta en parentesis es tremoleado

E|---------------------------------------------------------|
|20^20^20^20^20^20^-~18~----------------------------------|
G|------------------------(9-7-9-10-9-7-5------------------|
D|----------------------------------------8-6-4-2-4-2------|
A|----------------------------------------------------5)---|
E|---------------------------------------------------------|

E|---------------------------------10-10-10-10-10-10-10-10-|
B|---------------------------------10| 10 10 10 10 10 10 10-|
G|-5xx-5xx-5xx-5xx-5xx-5xx-5xx-5xx--7--7--7--7--7--7--7--7-|
D|---------------------------------------------------------|
A|---------------------------------------------------------|
E|---------------------------------------------------------|

 esta parte es con el bajo

ya noooooooooo

E|-------------------------------------|
B|-------------------------------------|
G|-3-----3--3-----3--3-----3--3-----3--|
D|---1-1------1-1------1-1------1-1----|

ya noooooooooo uojojojo

E|-------------------------------------|
B|-------------------------------------|
G|-3-----3--3-----3--3-----3--3-----3--|
D|---1-1------1-1------1-1------1-1----|

  no   no   no   no   no   no   noooooooooo

E|---------------------------------------------------|
B|---------------------------------------------------|
G|---------------------------------------------------|
D|-5555555--66666666--88888888--10-10-10-10-10-10-10-|

outro:

E|---------------------------------------------------------|
B|----15-------------------------15------------------------|
G|-14----14-17--14-17-14------14----14-17--14-17-14--------|
D|---------------------------------------------------------|
A|---------------------------------------------------------|
E|---------------------------------------------------------|

E|---------------------------------------------------------|
B|----15-------------------------15------------------------|
G|-14----14-17--14-17-14------14----14-17--14-17-14--------|
D|---------------------------------------------------------|
A|---------------------------------------------------------|
E|---------------------------------------------------------|

E|----------------------|
B|----------------------|
G|----------------------|
D|-0-5-0-4-0--0-5-0-4-0-|
A|----------------------|
E|----------------------|

toda esta canción va dedicada para muchos de mis amigos de aqui
de tampico y para alguien especial para Cinthia y para toda la
rondalla de la universidad valle del bravo campus tampico que
ahí fue donde me inicie.
Composição de Alfonso Andre / Saul Hernández
    • ½ Tom
    • Am
    • Bbm
    • Bm
    • Cm
    • C#m
    • Dm
    • Ebm
    • Em
    • Fm
    • F#m
    • Gm
    • G#m
  • Adicionar à lista

    0 comentários

    Ver todos os comentários

    Conseguiu tocar?

    0 Tocaram 0 Ainda não

    Grave um vídeo tocando Detras De Ti e nos envie!

    00:00 / 00:00
    Outros vídeos desta música
    Repetir Qualidade Automático
    Outros vídeos desta música
    00:00 / 00:00
    Automático

    Cifra Club Pro

    Aproveite o Cifra Club com benefícios exclusivos e sem anúncios
    Cifra Club Pro
    Aproveite o Cifra Club com benefícios exclusivos e sem anúncios
    OK