Cifra Club

Aprenda

Hasta Morir

Caifanes

Cifra: Principal (violão e guitarra)
tom: A
Intro: 

A|-------0-0--0-0------------0-0--0-0--------------- 
E|--3/5------------0-0--0-0------------0-0--0--12\-- 

Tocas esta parte cuando dice ...llevarte lejos muy lejos... 

A|-----0----- 
E|--0-----0-- 

A|--0-0--0-0--3--------------5--0-0--0-0--3--------------- 
E|---------------0-0--0-0--3-----------------0-0--0--12\-- 

Luego tocas esto ...no creas... 

D|-----------------3/7-- 
A|--0~------0~---------- 
E|------0~------0------- 

D|-----------5-----------------------5-------------- 
A|--0-0--0-3-----------5----0-0--0-3-----------5---- 
E|--------------0-0--0---3--------------0-0--0---3-- 

A|--0-0--0-2-3---------5----0-0--0-2-3---------5---- 
E|--------------0-0--0---3--------------0-0--0---3-- 

D|---------------------------------------------2-- 
A|--0-0--0-2-3---------5----0-0--0-2-3------------ 
E|--------------0-0--0---3--------------0-0--0---- 

D|-----------5-----------------------5-------------- 
A|--0-0--0-3-----------5----0-0--0-3-----------5---- 
E|--------------0-0--0---3--------------0-0--0---3-- 

D|-----------5------------------ 
A|--0-0--0-3-----------5----0~-- 
E|--------------0-0--0---3------
Composição de Saul Hernández
Colaboração e revisão:
  • Kaio Mano
1.147 exibições
    • ½ Tom
    • A
    • Bb
    • B
    • C
    • Db
    • D
    • Eb
    • E
    • F
    • F#
    • G
    • Ab
  • Adicionar à lista

    0 comentários

    Ver todos os comentários

    Conseguiu tocar?

    0 Tocaram 0 Ainda não

    Grave um vídeo tocando Hasta Morir e nos envie!

    00:00 / 00:00
    Outros vídeos desta música
    Repetir Qualidade Automático
    Outros vídeos desta música
    00:00 / 00:00
    Automático

    Cifra Club Pro

    Aproveite o Cifra Club com benefícios exclusivos e sem anúncios
    Cifra Club Pro
    Aproveite o Cifra Club com benefícios exclusivos e sem anúncios
    OK