Cifra Club

Aprenda

La Vida No Es Eterna

Caifanes

Cifra: Principal (violão e guitarra)
tom: Ab
Intro: La Vida No Es Eterna 
guitarra 1 x6 

e---3----1--1---| 
b-3---3---------| 
g---------------| 
d---------------| 
a---------------| 
e---------------| 

guitarra 2 x6 
e-------3--------3---3-| 
b-3-3-3----3-3-3---3---| 
g----------------------| 
d----------------------| 
a----------------------| 
e----------------------| 

y se repite luego x17 mientras la guitarra 1  
toca el verso 3 x4  

verso 1 muchas veces '...mira como te a dejado este historia...' 

e------------------------------------------------------| 
b-3-3--3-3-3--3-3--3-3-3-3--3-3-3--3-3-3-3-3-3--3-3-3--| 
g------------------------------------------------------| 
d------------------------------------------------------| 
a------------------------------------------------------| 
e------------------------------------------------------| 

verso 2  '...mira que la vida no es eterna...' 
x4 
e----------1-------------| 
b---4----3-----3---4--4--| 
g-3---3------3---3-------| 
d------------------------| 
a------------------------| 
e------------------------| 

verso 3 
x2 
e-------------------------------------| 
b---3---1-1---1---3-1-3-3-1-1---------| 
g-0---0-----0---0-------------2-3-3-2-| 
d-------------------------------------| 
a-------------------------------------| 
e-------------------------------------| 

cuando empiesa el verso 3 se la guitarra 1 toca este riff o solo 

e-----------3--11-10-----------3--11-10-| 
b-3--4-3--4-----------3--4-3-4----------| 
g---------------------------------------| 
d---------------------------------------| 
a---------------------------------------| 
e---------------------------------------| 

seguido por estos riffs  '...mira como se te cae todita la cavellera..' 

e-------------------------------------| 
b---------1----3--3-3-3-3-3-3---------| 
g-0-2-3------3----------------0-------| 
d-------------------------------------| 
a-------------------------------------| 
e-------------------------------------| 

e--------------1----------------------| 
b------1----3----1-----------------1--| 
g-2-3-----3---------3-3---0-2-3-------| 
d--------------------------------0----| 
a-------------------------------------| 
e-------------------------------------| 

e-------------------------------------| 
b-3-3-1-1---------------1-------------| 
g---------3--0-2-3--3-2---------------| 
d-------------------------------------| 
a-------------------------------------| 
e-------------------------------------| 


se repite el verso 1 muchas veces mientras se tocan los riffs 

luego el verso 2 x4 

y luego el solo 
guitarra 1 

e-9-9-9-8-6-4--1-1-1---1-4-------1-6-6-6-11-6-6-9-9-9-8-6-4-4-6-4-4-| 
b--------------------4-----2-2-4------------------------------------| 
g-------------------------------------------------------------------| 
d-------------------------------------------------------------------| 
a-------------------------------------------------------------------| 
e-------------------------------------------------------------------| 

guitarra 2 verso 4 mientras toca el solo la guitarra 1 

e--------------------------------------------------11-6--| 
b---------------------------------2-2-2-2-2-2-2-2--------| 
g-1-1-1-1-1-1-1-1-1-1-1-1-1-1-1-1------------------------| 
d--------------------------------------------------------| 
a--------------------------------------------------------| 
e--------------------------------------------------------| 

e---------------------------------| 
b---------------------------------| 
g-1-1-1-1-1-1-1-1-1-1-1-1-1-1-1-1-| 
d---------------------------------| 
a---------------------------------| 
e---------------------------------| 

despues de el solo se toca esto  '...mira que la vida no es eterna...' 
verso 5 guitarra 2 x4 

e---6-------6-1-----6-1---1-6-1-3-4-8---3-3-8-1-------------| 
b-4---3---4-------------3-------------4----------3---4-4-3--| 
g-------3-------3----------------------------------1--------| 
d-----------------------------------------------------------| 
a-----------------------------------------------------------| 
e-----------------------------------------------------------| 

al mismo tiepo se toca el verso 2 varias veces mientras se toca el verso 5 

luego la guiatrra 2 toca el verso 3 hasta acabar la cancion 

mientras eso la guitarra 1 toca el riff o solo 

lugo la guitarra 1 toca este riff x2 para finalizar 

e------------------1------------| 
b-3--------3---------4--3-4-3---| 
g---0----0---2--3---------------| 
d-----0-------------------------| 
a-------------------------------| 
e-------------------------------| 

y la guiatrra 1 finalisa asi 

e------| 
b------| 
g--0---| 
d--0---| 
a------| 
e------| 

cualquier dudas o comentarios a caifan_4315@yahoo.com
Composição de Guillermo Rodriguez Fiffe
Colaboração e revisão:
  • Kaio Mano
668 exibições
    • ½ Tom
    • A
    • Bb
    • B
    • C
    • Db
    • D
    • Eb
    • E
    • F
    • F#
    • G
    • Ab
  • Adicionar à lista

    0 comentários

    Ver todos os comentários

    Conseguiu tocar?

    0 Tocaram 0 Ainda não

    Grave um vídeo tocando La Vida No Es Eterna e nos envie!

    00:00 / 00:00
    Outros vídeos desta música
    Repetir Qualidade Automático
    Outros vídeos desta música
    00:00 / 00:00
    Automático

    Cifra Club Pro

    Aproveite o Cifra Club com benefícios exclusivos e sem anúncios
    Cifra Club Pro
    Aproveite o Cifra Club com benefícios exclusivos e sem anúncios
    OK