Cifra Club

Aprenda

Nós Vamos Juntos

Caifanes

Cifra: Principal (violão e guitarra)
tom: D
Esta rola es demasiado buena, solo te recomiendo  
escucharla un par de veces para que agarres bien los 
tiempos... 

 Intro 
  Em 
G|---------7s9|----4-5-4---|---------7s9|----4-5-4---| 
D|------------|-5-7-----7--|------------|-5-7-----7--| 
A|--7---------|7-----------|7-----------|7-----------| 
E|0-----------|------------|------------|------------| 

  Nos vamos juntos… 
  Em                    D   Em                    D 
G|------------|------------|------------|------------| 
D|---2----2---|------------|---2----2---|------------| 
A|------------|--2------5-5|------------|--2------5-5| 
E|0-0--0-0----|0---0-------|0-0--0-0----|0---0-------| 

  G            Em                                 D 
G|------7-----|7s9----4-5-4|------------|------------| 
D|5-------5-5-|----5-7-----|7----2----2-|------------| 
A|------------|---7--------|------------|--2------5-5| 
E|------------|------------|--0-0--0-0--|0---0-------| 

  Mordiendo el tiempo… 
  Em                    D   Em                    D 
G|------------|------------|------------|------------| 
D|---2----2---|------------|---2----2---|------------| 
A|------------|--2------5-5|------------|--2------5-5| 
E|0-0--0-0----|0---0-------|0-0--0-0----|0---0-------| 

  G            Em                              D 
G|------7-----|7s9----4-5-4|------------|------------| 
D|5-------5-5-|----5-7-----|7---2----2--|------------| 
A|------------|---7--------|------------|--2---5-5-5s| 
E|------------|------------|-0-0--0-0---|0---0-------| 

  Y sin embargo… 
  F            Em               A  
G|------------|-(12)(9)(7)(12)-|---------|| 
D|------------|-(12)(9)(7)(12)-|---------|| 
A|8--8--------|7---------------|12-------|| 
E|------------|----------------|---------|| 
                  
  Intro… 
  Em 
G|---------7s9|----4-5-4---|---------7s9|-9s12--12---| 
D|------------|-5-7-----7--|------------|------------| 
A|--7---------|7-----------|----7-5-----|------------| 
E|0-----------|------------|0-0-----0---|------------| 
  Vivimos juntos… 
  Em                    D   Em                    D 
G|------------|------------|------------|------------| 
D|---2----2---|------------|---2----2---|------------| 
A|------------|--2------5-5|------------|--2------5-5| 
E|0-0--0-0----|0---0-------|0-0--0-0----|0---0-------| 

  G            Em  
G|------------|---------7s9|----4-5-4---|| 
D|5-----------|---2----2---|-5-7-----7--|| 
A|-5-------2s5|------------|7-----------|| 
E|--33--3-5---|0-0--0-0----|------------|| 

  Juntos buscamos… 
  Em                    D   Em                    D 
G|------------|------------|------------|------------| 
D|---2----2---|------------|---x----x---|------------| 
A|------------|--2------5-5|------------|--2------5--| 
E|0-0--0-0----|0---0-------|0-0--0-0----|0---0-------| 

                            Y sin embargo... 
  G            Em           F    Em                   A 
G|------------|------------|------------|---12-16-14--14| 
D|5-----------|------------|--------14-12-14------------| 
A|-5--------2-|------------|------------|---------------| 
E|--33--3-5---|0---0-------|13---12-----|---------------| 

  Me voy yendo… 
  G            A            Bm             
G|------------|------------|------------|------------| 
D|------------|------------|------------|------------| 
A|------------|------------|2---2---2-2-0--2-2-------| 
E|3---3--3-3-0|5--5--5-----|------------|------5-----| 
 *                    3  veces                       * 

  G            A            Bm 
G|------------|------------|------------|--4-4-2-----| 
D|------------|------------|------------|------------| 
A|------------|------------|2---2---2-2-0--------2---| 
E|3---3--3-3-0|5--5--5-----|------------|------------| 

  Vamos abrazarnos... 
  Em            D           Em            D 
G|------------|------------|------------|------------| 
D|------------|------------|------------|------------| 
A|-----2-----2|-5--5-------|-----2-----2|-5--5-------| 
E|0--3---3--0-|------------|0--3---3--0-|------------| 

  G            Em 
G|------------|------------|------4-5---|| 
D|------------|------------|--5h7-------|| 
A|-----------2|-----2---7-5s7-----------|| 
E|3---3-3-3-5-|0--3---3----|------------|| 

  Vayamos juntos... 
  Em           D            Em           D 
G|------------|------------|------------|------------| 
D|------------|------------|------------|-2-5-2------| 
A|-----2------|5-5---------|-----2------|5-----5-----| 
E|0--3---3-0-0|------------|0--3---3--0-|------------| 

  G                         Em 
G|--7s9-----4-5-4----------|------------|------------| 
D|5-----5-7---|---7--------|------------|------------| 
A|-----7------|------------|------------|------------| 
E|------------|------------|0-0---0-0---|0-3h5--0----| 

  Repite el coro hasta el final…
Composição de Saul Hernández
Colaboração e revisão:
  • Leonardo
1.293 exibições
    • ½ Tom
    • A
    • Bb
    • B
    • C
    • Db
    • D
    • Eb
    • E
    • F
    • F#
    • G
    • Ab
  • Adicionar à lista

    0 comentários

    Ver todos os comentários

    Conseguiu tocar?

    0 Tocaram 0 Ainda não

    Grave um vídeo tocando Nós Vamos Juntos e nos envie!

    00:00 / 00:00
    Outros vídeos desta música
    Repetir Qualidade Automático
    Outros vídeos desta música
    00:00 / 00:00
    Automático

    Cifra Club Pro

    Aproveite o Cifra Club com benefícios exclusivos e sem anúncios
    Cifra Club Pro
    Aproveite o Cifra Club com benefícios exclusivos e sem anúncios
    OK