Cifra Club

Cool Blue Reason

Cake

Cifra: Principal (violão e guitarra)
tom: G
Cool blue reason empties on the page
Your colleagues are in prison and your enemies enraged
Em           D   Em               D
Cool blue reason comes into your world
        Em                D             Em             D
There's two more dead in Texas and it's probably your girls
A          C     G                 D  (dedilhado 1)
Cool blue reason wraps around your throat
A                       C     
The minutes change like seasons
     G            D     (dedilhado 1)
Only 8 more hours to go
     G            D     (dedilhado 1)
Only 8 more hours to go
     G                    D  (dedilhado 2)
Only 8 more hours left to go

Em           D   Em               D
Cool blue reason comes into your life
        Em                D             Em             D
There's one more dead in Kansas and it's probably your wife
A          C              G            D  (dedilhado 1)
Cool blue reason I'm just talking to myself
A          C              G            D  (dedilhado 1)
Cool blue reason I'm just rearranging hell
         G            D     (dedilhado 1)
I'm just talking to myself
         G            D     (dedilhado 1)
I'm just talking to myself
         G            D     (dedilhado 2)
I'm just talking to myself

Dedilhado 4
Solo

A          C     G                 D  (dedilhado  no A e depois G e D, fácil de improvisar)
Cool blue reason wraps around your throat
A                       C     
The minutes change like seasons
     G            D     (dedilhado 1)
Only 8 more hours to go
     G            D     (dedilhado 1)
Only 8 more hours to go
     G                    D  (dedilhado 3)
Only 8 more hours left to go

Dedilhado 4
Solo



Dedilhado 1
E|---------------------------------
B|-----3---------------------------
G|---4---4-----7-------------------
D|-5---------7---7-----------------
A|---------5-----------------------
E|---------------------------------

Dedilhado 2
E|---------3-----------------------
B|-----3-----3---3-----------------
G|---4---4-----4-------------------
D|-5-------------------------------
A|---------------------------------
E|---------------------------------

Dedilhado 3
E|-7-----7-----7---7-----7-----7---
B|---8-----8-----8---8-----8-----8-
G|-----7-----7---------7-----7-----
D|---------------------------------
A|---------------------------------
E|---------------------------------

Dedilhado 4
E|-------12----12----12-------10---
B|----------12----12-------10----10
G|-11/12----------------11---------
D|---------------------------------
A|---------------------------------
E|---------------------------------

Solo
E|-----------------------------------------------------
B|-------------7-5~--3h5-------------3-----------------
G|-----------------------4~--4h2---2---4---------------
D|-2-4-5-4-2-0-------------------5--------5-5-4-3-2----
A|-----------------------------------------------------
E|-----------------------------------------------------
00:00 / 00:00
Outros vídeos desta música
Repetir
Outros vídeos desta música
Composição de John McCrea
Colaboração e revisão:
  • Fábio Botler
2.404 exibições
    • ½ Tom
    • A
    • Bb
    • B
    • C
    • Db
    • D
    • Eb
    • E
    • F
    • F#
    • G
    • Ab
  • Adicionar à lista

    0 comentários

    Ver todos os comentários

    Entre para oCifra Club PRO

    Tenha acesso a benefícios exclusivos no App e no Site

    • Chega de anúncios

    • Prioridade de compra em lançamentos

    • Mais recursos no app do Afinador

    • Atendimento Prioritário

    • Descontos nos produtos Cifra Club

    • Ajude a produzir mais conteúdo

    00:00 / 00:00

    Cifra Club Pro

    Aproveite o Cifra Club com benefícios exclusivos e sem anúncios
    Cifra Club Pro
    Aproveite o Cifra Club com benefícios exclusivos e sem anúncios
    OK