Cifra Club

Frank Sinatra Intro

Cake

Cifra: Principal (violão e guitarra)
Tom: G
(intro)

E|-----------------------------------------|
B|-----------------------------------------|
G|-----------------------------------------|
D|-------2--------5------------------------|
A|--2-22--2--2-22--2--2-222\3---------3-2--|
E|---------------------------3--3-33-------|

E|-----------------------------------------|
B|-----------------------------------------|
G|-----------------------------------------|
D|------------5--------4-------------------|
A|-0-----0-2-----2-0-2---222---------------|
E|----33-----------------------------------|
exibições 1.487
Acordes para:
    Colaboração e revisão:
    • Fernando Chaves

    0 comentários

    mostrar mais comentários

    Conseguiu tocar?

    0 tocaram 0 ainda não

    Grave um vídeo tocando Frank Sinatra Intro e mande pra gente!

    00:00 / 00:00
    outros vídeos desta música
    repetir qualidade Automático
    Outros vídeos desta música
    00:00 / 00:00
    Automático
    OK