Cifra Club

I will survive - solo

Cake

Cifra: Principal (violão e guitarra)
Tom: A
|------------------------------------------------------------------------|
|--8b10r8--5-------------------------------------------------------------|
|-------------7b9--9r7p5-5---5-7-7-7-7-7--7-7-7---5-7-5--4-9-4-9-4-------|
|--------------------------7--------------------7------------------------|
|------------------------------------------------------------------------|
|------------------------------------------------------------------------|


|------------------------------------------------------------------------|
|------------------------------------------------------------------------|
|---------------------------------------------5---5-7-7b9r7p5-5---5-7----|
|------5-7b9r7p5--5---5---7-5--7-5---5-5-6--7---7---------------7--------|
|--5/7--7-----------7--------------7-------------------------------------|
|------------------------------------------------------------------------|


|------------------------------------------------------------------------|
|--------------------------------------12--------------------------------|
|-8p7-8p7-8--------------9-11-9--11b13-----13r11p9-11----9-11----9-11-9--|
|-------------------9/11------------------------------11------11---------|
|------------------------------------------------------------------------|
|------------------------------------------------------------------------|


|----8-5-7-3-5-2-0-3-2---------------------------------------------------|
|------------------------~~bar--12--8-10-7-8-5-3-7-5-----5-5-5-5-5-5-5---|
|7/9---7-7-5-5-2-0-4-2---------------------------------------------------|
|------------------------------12--10-10-7-7-5-4-7-5---------------------|
|------------------------------------------------------------------------|
|------------------------------------------------------------------------|


|--------------------------------------------------------5---------------|
|--10-6-8-5-6-3-1-5-4------------7----9-9-9-9-9-9-10-12--5---------------|
|-----------------------9-9b11r9---9---------------------5---------------|
|-10--8-8-5-5-3-1-5-4------------------------------------5---------------|
|--------------------------------------------------------7---------------|
|--------------------------------------------------------5---------------|

detalhe de guitarra antes do solo:
|------------------------------------------------------------------------|
|-12-------10------------------------------------------------------------|
|---(7x)-----(7x)----------12-(7x)--9--(7x)-10-(7x)-8-(7x)--9------------|
|-14-------12-----------------------10-(7x)-10-(7x)-9-(7x)--9------------|
|-------------------10-10-----------------------------------7------------|
|------------------------------------------------------------------------|
exibições 58.459
Acordes para:

    0 comentários

    mostrar mais comentários

    Conseguiu tocar?

    0 tocaram 0 ainda não

    Grave um vídeo tocando I will survive - solo e mande pra gente!

    00:00 / 00:00
    outros vídeos desta música
    repetir qualidade Automático
    Outros vídeos desta música
    00:00 / 00:00
    Automático
    OK