Cifra Club

Never There

Cake

Cifra: Principal (violão e guitarra)
exibições 51.711
Tom: Em
I need your arms around me
I need to feel your touch


[Introdução]

Guitarra 1
E|-----------------------------------------------------|
B|-----------------------------------------------------|
G|-----------------------------------------------------|
D|-----------------2-2-2-2-2-2-----------2-2-----1-1---|
A|-----------------------------0-0---3-3-----2-2----2-2|
E|-0-0-0-0-0-0-3-3-------------------------------------|

Violão
E|-----------------------------------------------------|
B|-----------------------------------------------------|
G|-----------------------------------------------------|
D|-----------------2---------------------2-------1-----|
A|-----------------------------0-----3-------2------2--|
E|-0-------------3-------------------------------------|


[Primeira Parte]

Guitarra 1
E|-----------------------------------------------------|
B|-----------------------------------------------------|
G|-----------------------------------------------------|
D|-----------------2-2-2-2-2-2-----------2-2-----1-1---|
A|-----------------------------0-0---3-3-----2-2----2-2|
E|-0-0-0-0-0-0-3-3-------------------------------------|

Violão
E|-----------------------------------------------------|
B|-----------------------------------------------------|
G|-----------------------------------------------------|
D|-----------------2---------------------2-------1-----|
A|-----------------------------0-----3-------2------2--|
E|-0-------------3-------------------------------------|

I need your understanding
I need your love so much
You tell me that you love me so
You tell me that you care
But when I need you (baby)
Baby (you're never there)

On the phone long, long distance
Always through such trong resistance
And first you say you're too busy
I wonder if you even miss me


[Refrão]

Guitarra 1
E|-----------------------------------------------------|
B|-----------------------------------------------------|
G|-----------------------------------------------------|
D|-----------------2-2-2-2-2-2-----------2-2-----1-1---|
A|-----------------------------0-0---3-3-----2-2----2-2|
E|-0-0-0-0-0-0-3-3-------------------------------------|

Guitarra 2
  P.M. . . . .
E|-----------------------------------------------------|
B|-----------------------5--5--------------------------|
G|--------------------3--------------------------------|
D|-2-2-2-2-2-2-----5-----------------------------------|
A|-2-2-2-2-2-2-----------------------------------------|
E|-0-0-0-0-0-0-----------------------------------------|

  P.M. . . . .
E|-----------------------------------------------------|
B|-----------------------7--5--------------------------|
G|--------------------5--------------------------------|
D|-2-2-2-2-2-2----/7-----------------------------------|
A|-2-2-2-2-2-2-----------------------------------------|
E|-0-0-0-0-0-0-----------------------------------------|

  P.M. . . . .
E|-----------------------------------------------------|
B|-----------------------5--5--------------------------|
G|--------------------3--------------------------------|
D|-2-2-2-2-2-2-----5-----------------------------------|
A|-2-2-2-2-2-2-----------------------------------------|
E|-0-0-0-0-0-0-----------------------------------------|

Never there
You're never there
You're never, ever, ever, ever, there


Violão
E|-----------------------------------------------------|
B|-----------------------------------------------------|
G|-----------------------------------------------------|
D|-----------------------------------------------------|
A|-----------------------------------------------------|
E|-3-3-3-2-2-0-----------------------------------------|


[Interlúdio]

Guitarra 1
E|-----------------------------------------------------|
B|-----------------------------------------------------|
G|-----------------------------------------------------|  (3x)
D|-----------------2-2-2-2-2-2-----------2-2-----1-1---|
A|-----------------------------0-0---3-3-----2-2----2-2|
E|-0-0-0-0-0-0-3-3-------------------------------------|

E|-----------------------------------------------------|
B|-----------------------------------------------------|
G|-----------------------------------7-----5\4---------|
D|-----------------2-2-2-2-2-2-------7-----5\4----2----|
A|-----------------------------0-0---5-----3\2----2----|
E|-0-0-0-0-0-0-3-3--------------------------------0----|


Adaptação do Solo de Trompete:

E|-12--------------------------------------------------|
B|------12---13---12-13---13---12-13---12--------------|
G|-----------------------------------------------------|
D|-----------------------------------------------------|
A|-----------------------------------------------------|
E|-----------------------------------------------------|

E|-12----------------14------15------------------------|
B|------12---13---12------------13---12----------------|
G|-----------------------------------------------------|
D|-----------------------------------------------------|
A|-----------------------------------------------------|
E|-----------------------------------------------------|

E|-12--------------------------------------------------|
B|------12---13---12-13---13---12-13---12--------------|
G|-----------------------------------------------------|
D|-----------------------------------------------------|
A|-----------------------------------------------------|
E|-----------------------------------------------------|

E|-12----------------14------15------------------------|
B|------12---13---12--------------13---12--------------|
G|-----------------------------------------------------|
D|-----------------------------------------------------|
A|-----------------------------------------------------|
E|-----------------------------------------------------|


[Segunda Estrofe]

A golden bird that flies away
A candle's fickle flame
To think I held you yesterday
Your love was just a game
A golden bird that flies away
A candle's fickle flame
To think I held you yesterday
Your love was just a game

Guitarra 2
E|-----------------------------------------------------|
B|-----------------------------------------------------|
G|-----------------------------------------------------|
D|-5---5---5---5---/7-7-7-7-7-7-7-7-x------------------|
A|-7---7---7---7---/9-9-9-9-9-9-9-9-x------------------|
E|-----------------------------------------------------|

You tell me that you love me so
You tell me that you care
But when I need you (baby)
Baby

Take the time to get to know me
If you want me
Why can't you just show me
We're always on this roller coaster
If you want me
Why can't you get closer


[Refrão]

Guitarra 1
E|-----------------------------------------------------|
B|-----------------------------------------------------|
G|-----------------------------------------------------|
D|-----------------2-2-2-2-2-2-----------2-2-----1-1---|
A|-----------------------------0-0---3-3-----2-2----2-2|
E|-0-0-0-0-0-0-3-3-------------------------------------|

Guitarra 2
  P.M. . . . .
E|-----------------------------------------------------|
B|-----------------------5--5--------------------------|
G|--------------------3--------------------------------|
D|-2-2-2-2-2-2-----5-----------------------------------|
A|-2-2-2-2-2-2-----------------------------------------|
E|-0-0-0-0-0-0-----------------------------------------|

  P.M. . . . .
E|-----------------------------------------------------|
B|-----------------------7--5--------------------------|
G|--------------------5--------------------------------|
D|-2-2-2-2-2-2----/7-----------------------------------|
A|-2-2-2-2-2-2-----------------------------------------|
E|-0-0-0-0-0-0-----------------------------------------|

  P.M. . . . .
E|-----------------------------------------------------|
B|-----------------------5--5--------------------------|
G|--------------------3--------------------------------|
D|-2-2-2-2-2-2-----5-----------------------------------|
A|-2-2-2-2-2-2-----------------------------------------|
E|-0-0-0-0-0-0-----------------------------------------|

  P.M. . . . .
E|-----------------------------------------------------|
B|-----------------------5--5--------------------------|
G|--------------------3--------------------------------|
D|-2-2-2-2-2-2-----5-----------------------------------|
A|-2-2-2-2-2-2-----------------------------------------|
E|-0-0-0-0-0-0-----------------------------------------|

  P.M. . . . .
E|-----------------------------------------------------|
B|-----------------------7--5--------------------------|
G|--------------------5--------------------------------|
D|-2-2-2-2-2-2----/7-----------------------------------|
A|-2-2-2-2-2-2-----------------------------------------|
E|-0-0-0-0-0-0-----------------------------------------|

  P.M. . . . .
E|-----------------------------------------------------|
B|-----------------------5--5--------------------------|
G|--------------------3--------------------------------|
D|-2-2-2-2-2-2-----5-----------------------------------|
A|-2-2-2-2-2-2-----------------------------------------|
E|-0-0-0-0-0-0-----------------------------------------|

Never there
You're never there
You're never ever, ever, ever, there
Never there
You're never there
You're never ever, ever, ever, there


Violão
E|-----------------------------------------------------|
B|-----------------------------------------------------|
G|-----------------------------------------------------|
D|-----------------------------------------------------|
A|-----------------------------------------------------|
E|-3-3-3-3-2-0-----------------------------------------|


[Final]

Guitarra 1
E|-----------------------------------------------------|
B|-----------------------------------------------------|
G|-----------------------------------------------------|  (3x)
D|-----------------2-2-2-2-2-2-----------2-2-----1-1---|
A|-----------------------------0-0---3-3-----2-2----2-2|
E|-0-0-0-0-0-0-3-3-------------------------------------|

E|-----------------------------------------------------|
B|-----------------------------------------------------|
G|-----------------------------------7-----5\4---------|
D|-----------------2-2-2-2-2-2-------7-----5\4----2----|
A|-----------------------------0-0---5-----3\2----2----|
E|-0-0-0-0-0-0-3-3--------------------------------0----|


Adaptação do Solo de Trompete:

E|-12--------------------------------------------------|
B|------12---13---12-13---13---12-13---12--------------|
G|-----------------------------------------------------|
D|-----------------------------------------------------|
A|-----------------------------------------------------|
E|-----------------------------------------------------|

E|-12----------------14------15------------------------|
B|------12---13---12------------13---12----------------|
G|-----------------------------------------------------|
D|-----------------------------------------------------|
A|-----------------------------------------------------|
E|-----------------------------------------------------|

E|-12--------------------------------------------------|
B|------12---13---12-13---13---12-13---12--------------|
G|-----------------------------------------------------|
D|-----------------------------------------------------|
A|-----------------------------------------------------|
E|-----------------------------------------------------|

E|-12----------------14------15------------------------|
B|------12---13---12--------------13---12--------------|
G|-----------------------------------------------------|
D|-----------------------------------------------------|
A|-----------------------------------------------------|
E|-----------------------------------------------------|
Acordes para:
    Composição: John McCrea Colaboração e revisão:
    • Vinícius Dias
    • mateus

    0 comentários

    mostrar mais comentários

    Conseguiu tocar?

    3 tocaram 0 ainda não

    Grave um vídeo tocando Never There e mande pra gente!

    00:00 / 00:00
    outros vídeos desta música
    repetir qualidade Automático
    Outros vídeos desta música
    00:00 / 00:00
    Automático
    Capítulos
    • Tocando a música
    • Apresentação / Equipamentos
    • Tocando introdução - primeira parte
    • Ensinando riff principal
    • Ensinando riff principal violão
    • Tocando refrão
    • Ensinando refrão
    • Tocando interlúdio
    • Ensinando interlúdio
    • Ensinando solo trompete
    • Tocando segunda parte - final
    • Ensinando segunda parte
    • Encerramento
    OK