Cifra Club

The Distance

Cake

Cifra: Principal (violão e guitarra)
Tom: G
Riff 1

4x
e|--------------------|
B|--------------------|
G|-4-5/7\5-4-2-4/5\4-2|
D|-5-7/9\7-5-4-5/7\5-4|
A|--------------------|
E|--------------------|

Riff 2

2x
e|--------------------------------------------------------|
B|--------------------------------------------------------|
G|--------------------------------------------------------|
D|--------------------------------------------------------|
A|---------------------0-1-2---------------7^(8)-7-5------|
E|-0-0-0-0-0-0-0-3^(5)-------0-0-0-0-0-0-0-----------5^(7)|

Riff 3

3x
e|------------------|
B|------------------|
G|------------------|
D|------------------|
A|-------7----------|
E|-7-5-3---3-4-5-6-7|

ORDER!

Riff 1
Riff 2
Riff 3
Riff 2
Riff 1
Riff 2
Riff 3
Riff 3
Riff 2
Riff 3
Riff 3
Riff 3
exibições 3.977
Acordes para:
    Composição: G. Brown / Greg Brown Colaboração e revisão:
    • Isis Oliveira

    0 comentários

    mostrar mais comentários

    Conseguiu tocar?

    0 tocaram 1 ainda não

    Grave um vídeo tocando The Distance e mande pra gente!

    00:00 / 00:00
    outros vídeos desta música
    repetir qualidade Automático
    Outros vídeos desta música
    00:00 / 00:00
    Automático
    OK