Cifra Club

Agora estou sofrendo

Calcinha Preta

Cifra: Versão 2 (violão e guitarra)
tom: C
       F9                                    Dm  
E|-----------------8| e|-----------------5
B|-----------------8| B|-----------------6
G|-----------10| G|-----------7
D|------10| D|------7
A|--8| A|--5

Agora Estou Sofrendo

     Intro:[Am F Dm G] 2x
[Intro]

E|------12----10----8------7-----5-----3-----1-----1-----------------5-----5------7--|
B|------13----12----10-----8-----6-----5-----3-----3-------1/3------6-----6------8---|

E|------12----10----8------7-----5-----3-----1-----1-----------------5----------3----|
B|------13----12----10-----8-----6-----5-----3-----3------1/3-------6----5-----------|

    F9                           Dm
        Não há amor para min não
        Você estava mentindo     1º Arranjo

E|---5--5--5--------------8|
B|--------------8--6--6---8|


    F9                           Am
        Diga logo que não me amou
             C             F        
        Que não gostou de mim
             G            ( Am F Dm G )
        Não sente amor por mim
                                                                                         2º Riff do Refrão
E|------12----10----8------7-----5-----3-----1-----1-----------------5----------3----|
B|------13----12----10-----8-----6-----5-----3-----3------1/3-------6----5----------|


     F9                              Dm
        Quais as armas que encontram
        Pra fazer seus encantos         2º Arranjo

E|---8-8-8--7--5--7h8--7h8|
B|------------------------|



     F9                          Am   
        Derramar seu amor em mim


             C             F             
        Mas não gostou de mim
             G
        Não sente amor



     C                Dm
        Me fere e me risca de amor
     Am
        Me foge não me alimenta
     F             C         Bb
        Não sabe que já me conquistou
          G
        Agora estou sofrendo


              Arranjo depois do refrão





        ( F9 Dm )  

        Arranjo depois do refrão

D|---3h5---3---5/7------|

E|----7h8---7---| -5-----------8----------
B|----------------------6-------8--------|


    F9                           Dm
        Não há amor para min não
        Você estava mentindo

    F9                          Am
        Diga logo que não me amou
             C              
        Que não gostou de mim


    F9                               Dm
        Quais as armas que encontram
        Pra fazer seus encantos

    F9                         Am   
        Derramar seu amor em mim


             C             F             
        Mas não gostou de mim
             G
        Não sente amor



     C                Dm
        Me fere e me risca de amor
     Am
        Me foge não me alimenta
     F             C         Bb
        Não sabe que já me conquistou
          G
        Agora estou sofrendo



[Solo]

[Solo]

E|------------------------------------------------------------8--7--------------------------------------------------------------|
B|-----------5--8--8/10----8--6--8/10----10--10--10-----------------------------------------------------------------------|
G|---5--7-----------------------------------------------------------------------------------------------------------------------|

Obs.: Essa parte é um Sweep

E|-----------5-h-8-p-5---------------------------------7-h-10-p-7-----------------------------------------------------------|
B|-------6---------------6--------------------------8------------------8-----------8-------------------------------------------|
G|---5----------------------5-------------------7---------------------------7--------------------------------------------------|

E|---10--12--8--10--7--8/10--10--8--7-------7--8-------------------------------------------------------------------------|
B|--------------------------------------------8-----------10--------------------------------------------------------------------|

E|---7--8-----8/10---------12/13-----13--13--13--12--10-----------------------------------------------------------------|
B|---------8----------10-----------------------------------------13------------------------------------------------------------|

E|-------------------------------------------------------------------------------10--12--13/15--13--12-----------------------|
B|---------------------------------------------------------------10--12--13---------------------------------15--13--12--13-|
G|-----------------------------------------------9--10--12----------------------------------------------------------------------|
D|------------------8--10--12---8--10--12------------------------------------------------------------------------------------|
A|---8--10--12------------------------------------------------------------------------------------------------------------------|




     C                Dm
        Me fere e me risca de amor
     Am
        Me foge não me alimenta
     F             C         Bb
        Não sabe que já me conquistou
          G
        Agora estou sofrendo





Arranjo Final

E|---7/8--7---------------------------------8--------8------|
B|--------------8--8--6--5------------8----------8----------|
G|----------------------------7/9---------------------------|
00:00 / 00:00
Outros vídeos desta música
Repetir
Outros vídeos desta música
Composição de Edu Falaschi / Gilton Andrade / Kiko Loureiro / Rafael Bitencourt
Colaboração e revisão:
  • luiz rocha
  • Jefferson FS
38.673 exibições
    • ½ Tom
    • A
    • Bb
    • B
    • C
    • Db
    • D
    • Eb
    • E
    • F
    • F#
    • G
    • Ab
  • Adicionar à lista

    0 comentários

    Ver todos os comentários

    Entre para oCifra Club PRO

    Tenha acesso a benefícios exclusivos no App e no Site

    • Chega de anúncios

    • Prioridade de compra em lançamentos

    • Mais recursos no app do Afinador

    • Atendimento Prioritário

    • Descontos nos produtos Cifra Club

    • Ajude a produzir mais conteúdo

    00:00 / 00:00

    Cifra Club Pro

    Aproveite o Cifra Club com benefícios exclusivos e sem anúncios
    Cifra Club Pro
    Aproveite o Cifra Club com benefícios exclusivos e sem anúncios
    OK