Cifra Club

Aprenda

Como Vou Deixar Você?

Calcinha Preta

Cifra: Principal (violão e guitarra)
tom: G
[Solo]

E|------------12------12-14-15-12-----------------------|
B|--13/15---------15-------------13~--13-12-10---12~----|
G|----------12---------------------------------12-------|
D|------------------------------------------------------|
A|------------------------------------------------------|
E|------------------------------------------------------|


G      D                  C                     G
Eu briguei estava fora de mim tanto que te expulsei
G
Mas como vou deixar você?
          D    C     D     Em
Se eu te amo, amo , amo ,amoooo
D                         Em
Por onde você anda nessa hora?
D           C         G
Eu juro que pago pra saber
D             D#º                Em
Meu deus eu mandei o meu amor embora aaaaaaaaa

C   D     Em
Amor, amoooor 
C   D     Em
Amor, amoooor 
C            D   Em
Meu amor eu amo você
C   D     Em
Amor, amoooor
C   D     Em   C             D  Em
Amor, amoooor, meu amor eu amo você
                                                            A.H.
E|---------------------------78910-12-10-8------------------------|
B|--------------------7h8h10---------------12-10-8-7--------------|
G|--------------5h7h9--------------------------------7-7/9~--9~---|
D|--------5h7h9---------------------------------------------------|
A|--5h7h9---------------------------------------------------------|
E|----------------------------------------------------------------|


E|--15-12----12-15-15/17~--15-17-15-19~--17-15-17~--15-14---------|
B|--------15----------------------------------------------15~-----|
G|----------------------------------------------------------------|
D|----------------------------------------------------------------|
A|----------------------------------------------------------------|
E|----------------------------------------------------------------|


E|--14-14-14-14-14-14-14-14----14-15----14-15---------------------|
B|--------------------------17-------17-------17~--17-17-17-15-13~|
G|----------------------------------------------------------------|
D|----------------------------------------------------------------|
A|----------------------------------------------------------------|
E|----------------------------------------------------------------|


E|--17/19----17/19-15-14-------------17-19b-19-17-19~-------------|
B|--------15~------------17~-17--17-19----------------------------|
G|----------------------------------------------------------------|
D|----------------------------------------------------------------|
A|----------------------------------------------------------------|
E|----------------------------------------------------------------|
99.471 exibições
    • ½ Tom
    • A
    • Bb
    • B
    • C
    • Db
    • D
    • Eb
    • E
    • F
    • F#
    • G
    • Ab
  • Adicionar à lista

    0 comentários

    Ver todos os comentários

    Conseguiu tocar?

    10 Tocaram 1 Ainda não

    Grave um vídeo tocando Como Vou Deixar Você? e nos envie!

    00:00 / 00:00
    outros vídeos desta música
    repetir qualidade Automático
    Outros vídeos desta música
    00:00 / 00:00
    Automático

    Cifra Club Pro

    Aproveite o Cifra Club com benefícios exclusivos e sem anúncios
    Cifra Club Pro
    Aproveite o Cifra Club com benefícios exclusivos e sem anúncios
    OK