Cifra Club

Como Vou Deixar Você?

Calcinha Preta

Cifra: Principal
exibições 77.105
Tom: G
Solo do início:

E|------------12------12-14-15-12-----------------------|
B|--13/15---------15-------------13~--13-12-10---12~----|
G|----------12---------------------------------12-------|
D|------------------------------------------------------|
A|------------------------------------------------------|
E|------------------------------------------------------|

G      D                  C                     G
Eu briguei estava fora de mim tanto que te expulsei
G
Mas como vou deixar você?
          D    C     D     Em
Se eu te amo, amo , amo ,amoooo
D                         Em
Por onde você anda nessa hora?
D           C         G
Eu juro que pago pra saber
D             D#º                Em
Meu deus eu mandei o meu amor embora aaaaaaaaa

C   D     Em
Amor, amoooor ,
C   D     Em
Amor, amoooor ,
C            D   Em
Meu amor eu amo você
C   D     Em
Amor, amoooor,
C   D     Em   C             D  Em
Amor, amoooor, meu amor eu amo você

E|---------------------78910-9-8-7-----------------12~-|
B|----------------78910-----------10-9-7---------------|
G|-----------78910-----------------------9-7-9~--------|
D|--------7-8------------------------------------------|
A|-----7-8---------------------------------------------|
E|--7-8------------------------------------------------|

E|--12-10--10-12/14--15-14-15-17--17-15-17-19-----------|
B|-------12---------------------------------------------|
G|------------------------------------------------------|
D|------------------------------------------------------|
A|------------------------------------------------------|
E|------------------------------------------------------|

E|--19-17-15-14--14-14-14-14-15-14-12----10-------------|
B|------------------------------------------13----------|
G|------------------------------------------------------|
D|------------------------------------------------------|
A|------------------------------------------------------|
E|------------------------------------------------------|

E|--15/17---17/19-15-------------17-19b-----------------|
B|-------15----------19-17--17-19-----------------------|
G|------------------------------------------------------|
D|------------------------------------------------------|
A|------------------------------------------------------|
E|------------------------------------------------------|
Acordes para:
    Colaboração e revisão:

    0 comentários

      mostrar mais comentários

      Conseguiu tocar?

      7tocaram0ainda não

      Grave um vídeo tocando Como Vou Deixar Você? e mande pra gente!

      00:00 / 00:00
      outros vídeos desta música
      repetirqualidadeautomática
      Outro vídeos desta música
        00:00 / 00:00
        automática
        OK