Cifra Club

Fica Comigo

Calcinha Preta

Cifra: Principal (violão e guitarra)
tom: A
(intro) D A Bm A G Bm A


O 1º Solo da música
E|-----------------------------------------------------------|
B|--151515-13-12-13-15----------121212-10---10-10/12--15-15--|
G|---------------------14-14--------------12-----------------|
D|-----------------------------------------------------------|
A|-----------------------------------------------------------|
E|-----------------------------------------------------------|

E|-----------14-15-17b--17b-15-17---17-15-14-----------------|
B|--15-15b----------------------------------17-15-14---------|
G|--------------------------------------------------16-14-12-|
D|-----------------------------------------------------------|
A|-----------------------------------------------------------|
E|-----------------------------------------------------------|

O 2º Solo

E|-----------------------------------------------------------|
B|--10-12-13--12--10----------10-12-13--12--10---------------|
G|--------------------11-12--------------------11-10---------|
D|-----------------------------------------------------------|
A|-----------------------------------------------------------|
E|-----------------------------------------------------------|

E|--12----------------------------|
B|----15-13-12-------13-----------|
G|-------------14-12--------------|
D|--------------------------------|
A|--------------------------------|
E|--------------------------------|

O 3º Solo

E|-----------------------------------------|
B|--10-12-13--12--10-----------------------|
G|--------------------11-12----------------|
D|-----------------------------------------|
A|-----------------------------------------|
E|-----------------------------------------|

 D
Chorando eu fiquei
Bm            A     G
quando me deixou
           D      Bm           A       G
estou com frio e preciso desse amor
            A
seu amor é o sol
 G              Bm
sem ele eu não vivo
 G                     F#
vem amor, tú és meu paraíso.

 B      F#       Abm
Eu parei de viver
       Ebm      E
não vivo sem você
 C#m     F#
fica comigo!
 B           F#         Abm
Agora é só parar pra pensar
        Ebm         E
e se preparar para amar
 C#m       F#
a vida é assim
00:00 / 00:00
Outros vídeos desta música
Repetir
Outros vídeos desta música
Composição de Dino Boy / Valter Garrincha
Colaboração e revisão:
70.496 exibições
    • ½ Tom
    • A
    • Bb
    • B
    • C
    • Db
    • D
    • Eb
    • E
    • F
    • F#
    • G
    • Ab
  • Adicionar à lista

    0 comentários

    Ver todos os comentários

    Entre para oCifra Club PRO

    Tenha acesso a benefícios exclusivos no App e no Site

    • Chega de anúncios

    • Prioridade de compra em lançamentos

    • Mais recursos no app do Afinador

    • Atendimento Prioritário

    • Descontos nos produtos Cifra Club

    • Ajude a produzir mais conteúdo

    00:00 / 00:00

    Cifra Club Pro

    Aproveite o Cifra Club com benefícios exclusivos e sem anúncios
    Cifra Club Pro
    Aproveite o Cifra Club com benefícios exclusivos e sem anúncios
    OK