Cifra Club

Mágica

Calcinha Preta

Cifra: Principal (violão e guitarra)
tom: C
[Intro] Am7  Em7(9)  Am7  Em7(9)

 Am7                                 Em7(9)
Pára, eu não vou suportar toda essa barra
                           Am7
Meu coração um dia desses pára
    B7                                   Em7
Preciso te ver essa noite não importa a hora
     B7
Pra não enlouquecer
 Am7   D7
Marca aonde vou te ver
           G          G7M
Quem sabe no mesmo lugar
         C7M
Aonde a gente ia sempre se amar
          Am7
Repartir do mesmo lençol
    B7                           Em7
Sentindo a luz do sol, tocando a alma
  Dm7                    G7
Será que é difícil entender

        C7M       D7
Parece mágica, essa paixão me cresce
         Bm7            Em7
Em todas estações, não sei o que fazer
        C7M        D7
Parece mágica, nascemos um pro outro
      Bm7        Em7
A lua e o mar o sol e o amanhecer
         Am7
Nada conseguirá mudar
    Cm                       G
As nossas vidas já foram traçadas
     Cm          D          G
Pra sempre eu serei a sua amada

[Solo] C7M  D7  Bm7  Em7
       C7M  D7  Bm7  Em7
       Am7  Bm7
E|-------------------------------------------------------------------------------|
B|--------12-12~~-13-----------13/15-15\13-12-13-12h13p12-------15b17-15b17-15~~-|
G|-/12-14-------------------------------------------------14-12------------------|
D|-------------------14~~---14---------------------------------------------------|
A|-------------------------------------------------------------------------------|
E|-------------------------------------------------------------------------------|

E|-------------------------------------------------------------------------------|
B|-15-15-15--13-12-13-12----12-------------12-12~~-13----------------------------|
G|-----------------------14----14-12-12-14---------------------------------------|
D|----------------------------------------------------14-------------------------|
A|-------------------------------------------------------------------------------|
E|-------------------------------------------------------------------------------|

E|-------------------------------------------------------------------------------|
B|----13/15-15\13-12-13-12h13p12-------15b17-15b17-15~~--------------------------|
G|-------------------------------14-12-------------------------------------------|
D|-14----------------------------------------------------------------------------|
A|-------------------------------------------------------------------------------|
E|-------------------------------------------------------------------------------|

E|----------------------------------------15p12----------12-15/17-14-------------|
B|-15-15-15--13-12-13-12----12------------------13----13-------------15----------|
G|-----------------------14----14-12-14~~----------14-------------------14-12-11-|
D|-------------------------------------------------------------------------------|
A|-------------------------------------------------------------------------------|
E|-------------------------------------------------------------------------------|

E|-------------------------------------------------------------------------------|
B|----12----------------------------------12-15-13~~~~---------------------------|
G|-------12----14-11-------------11-12-14----------------------------------------|
D|-14-------14-------12----12-14-------------------------------------------------|
A|----------------------15-------------------------------------------------------|
E|-------------------------------------------------------------------------------|


 Am7   D7
Marca aonde vou te ver
           G          G7M
Quem sabe no mesmo lugar
         C7M
Aonde a gente ia sempre se amar
          Am7
Repartir do mesmo lençol
    B7                           Em
Sentindo a luz do sol, tocando a alma
  Dm7                    G7
Será que é difícil entender

        C7M       D7
Parece mágica, essa paixão me cresce
         Bm7            Em7
Em todas estações, não sei o que fazer
        C7M        D7
Parece mágica, nascemos um pro outro
      Bm7        Em7
A lua e o mar o sol e o amanhecer
         Am7
Nada conseguirá mudar
    Cm                       G
As nossas vidas já foram traçadas
     Cm          D          G
Pra sempre eu serei a sua amada

        C7M       D7
Parece mágica, essa paixão me cresce
         Bm7            Em7
Em todas estações, não sei o que fazer
        C7M        D7
Parece mágica, nascemos um pro outro
      Bm7        Em7
A lua e o mar o sol e o amanhecer
         Am7
Nada conseguirá mudar
    Cm                       G
As nossas vidas já foram traçadas
     Cm          D          Eb Cm
Pra sempre eu serei a sua amada
   F                      G
E sempre eu serei o seu amor
00:00 / 00:00
Outros vídeos desta música
Repetir
Outros vídeos desta música
Composição de Beto Caju / Chrystian Lima
Colaboração e revisão:
247.334 exibições
    • ½ Tom
    • A
    • Bb
    • B
    • C
    • Db
    • D
    • Eb
    • E
    • F
    • F#
    • G
    • Ab
  • Adicionar à lista

    0 comentários

    Ver todos os comentários

    Entre para oCifra Club PRO

    Tenha acesso a benefícios exclusivos no App e no Site

    • Chega de anúncios

    • Prioridade de compra em lançamentos

    • Mais recursos no app do Afinador

    • Atendimento Prioritário

    • Descontos nos produtos Cifra Club

    • Ajude a produzir mais conteúdo

    00:00 / 00:00

    Cifra Club Pro

    Aproveite o Cifra Club com benefícios exclusivos e sem anúncios
    Cifra Club Pro
    Aproveite o Cifra Club com benefícios exclusivos e sem anúncios
    OK