Cifra Club

Paulinha

Calcinha Preta

Cifra: Principal (violão e guitarra)
tom: E
INTRO:(E9 E)(2x)

       E9          E
Não há quem te ame tanto 
     G#m 
Envolvido em seus encantos 
        F#m                    G#7/4 G#7 
Não há jeito de não ter o seu amor 
        C#m       C#m/B       Bbm7/5b       
Agora soube que você já se casou 
           E   A/B 
Por que casou? 

       E9         E
Se te vejo, rezo, choro 
         G#m 
E ao segurança imploro 
      F#m                        G#7/4 G#7
Ela é linda e é mais linda lá no show 
       C#m        C#m/B      Bbm7/5b
Agora soube que você já se casou 
           E   A/B 
Por que casou?
 
    E        C#m 
Paulinha, me diz o que é que eu faço? 
    F#m      A/B   
Paulinha, te amo, amor 
    E        C#m 
Paulinha, me diz o que é que eu faço? 
    F#m         B4     B
Paulinha, por que se casou? 

Solo: E C#m F#m A/B E C#m F#m E/G# A A/B

e|--------------------------------------------------------12----12-----14-------
B|------------------9-10/12------------12-------9-10-9-10---9-10--10-12---------
G|------------8-9-11-------9-11-9-11/13--11/13----------------------------------
D|--------9-11------------------------------------------------------------------
A|--7-9-11----------------------------------------------------------------------
E|-7----------------------------------------------------------------------------

----------------------15-17-12-14-12-12--12-14-12--------12-----12--------------
--------------15-17-18-----------------14--------14--9-10--10-12--12------------
------13-14-16------------------------------------------------------------------
-14-16--------------------------------------------------------------------------
--------------------------------------------------------------------------------
--------------------------------------------------------------------------------

-16b-16---17/19-19-------------
-------17---------------------
------------------------------
-------------------------------
------------------------------
------------------------------
SOLO:ERISVALDO AZEVEDO

este é executado somente na escala de E...
00:00 / 00:00
Outros vídeos desta música
Repetir
Outros vídeos desta música
Composição de Gilton Andrade / Peter Willian / Thomas Evans
Colaboração e revisão:
  • erisvaldo azevedo
  • Marlon Silva
117.183 exibições
    • ½ Tom
    • A
    • Bb
    • B
    • C
    • Db
    • D
    • Eb
    • E
    • F
    • F#
    • G
    • Ab
  • Adicionar à lista

    0 comentários

    Ver todos os comentários

    Entre para oCifra Club PRO

    Tenha acesso a benefícios exclusivos no App e no Site

    • Chega de anúncios

    • Prioridade de compra em lançamentos

    • Mais recursos no app do Afinador

    • Atendimento Prioritário

    • Descontos nos produtos Cifra Club

    • Ajude a produzir mais conteúdo

    00:00 / 00:00

    Cifra Club Pro

    Aproveite o Cifra Club com benefícios exclusivos e sem anúncios
    Cifra Club Pro
    Aproveite o Cifra Club com benefícios exclusivos e sem anúncios
    OK