Cifra Club

Gata da Academia

Caldeirão

Cifra: Principal (violão e guitarra)
tom: E
Intro 2x: E  C#m  D#m  G#m
    E               C#m              D#m              G#m                      E
E|------------------------------------------------------------------------------
A|------------------------------------------------------------------------------
D|------------------------------------------------------------------------------
G|------------------------------------------------------------------------------
B|--9--9-9--9--9-9--9--9-9----9-------9--9-9--9--9-9---------------------------9
E|7~------7~------7~-------11~-9~-7-7~------7~------14--12-12--11-11--9-9--7-7--
               C#m              D#m              G#m
E|------------------------------------------------------------------------------
A|------------------------------------------------------------------------------
D|------------------------------------------------------------------------------
G|------------------------------------------------------------------------------
B|-9-9--9--9-9--9--9-9----9-------9--9-9--9--9----------------------------------
E|----7~------7~-------11~-9~-7-7~------7~-----9-11-9-7--9-11-9-7---------------

Riff 1: de entrada no refrão:                  Riff 2:
 (Do-na-de-mim)
E|-4--7----------                              E|-4--7----------
A|-------6--7----                              A|-------6--9--7-
D|---------------                              D|---------------
G|---------------                              G|---------------
B|---------------                              B|---------------
E|---------------                              E|---------------

                E                C#m
Eu chego, bem cedo não perco um momento
              D#m                G#m
E ela já tá suando, fazendo o aquecimento
                  E                     C#m
Com as mãos na cintura, no joelho vai nos pés
                D#m                      G#m
Com a calça de lycra e um topzinho no stress
                E                 C#m
Tão linda na esteira foi pro abdominal
                D#m                   G#m
Te olho pelo espelho você me faz passar mal
          E                  C#m
Acaba o supino e vai pro voador
             D#m              G#m
Abrindo e fechando ô calor!

(Refrão 2x)

Riff 1:
         E             C#m
Dona de mim, não faz assim
       D#m             G#m
Vai me matar qualquer dia.
Riff 2:
           E         C#m
Te ver malhar é de parar
      D#m        G#m ( Riff 2 )
Gata da academia.

                E                C#m
Eu chego, bem cedo não perco um momento
              D#m                G#m
E ela já tá suando, fazendo o aquecimento
                  E                     C#m
Com as mãos na cintura, no joelho vai nos pés
                D#m                      G#m
Com a calça de lycra e um topzinho no stress
(Riff 2)       E                 C#m
Tão linda na esteira foi pro abdominal
                D#m                   G#m
Te olho pelo espelho você me faz passar mal
          E                  C#m
Acaba o supino e vai pro voador
             D#m              G#m
Abrindo e fechando ô calor!

(Refrão 2x)

(Riff 2)
         E             C#m
Dona de mim, não faz assim
       D#m             G#m
Vai me matar qualquer dia.
(Riff 2)
           E         C#m
Te ver malhar é de parar
      D#m        G#m
Gata da academia.

(Refrão 2x)

(Riff 2)
         E             C#m
Dona de mim, não faz assim
       D#m             G#m
Vai me matar qualquer dia.
(Riff 2)
           E         C#m
Te ver malhar é de parar
      D#m        G#m
Gata da academia.
00:00 / 00:00
Outros vídeos desta música
Repetir
Outros vídeos desta música
Compositor não encontrado.
Colaboração e revisão:
13.533 exibições
    • ½ Tom
    • A
    • Bb
    • B
    • C
    • Db
    • D
    • Eb
    • E
    • F
    • F#
    • G
    • Ab
  • Adicionar à lista

    0 comentários

    Ver todos os comentários

    Conseguiu tocar?

    3 Tocaram 0 Ainda não

    Grave um vídeo tocando Gata da Academia e nos envie!

    Entre para oCifra Club PRO

    Tenha acesso a benefícios exclusivos no App e no Site

    • Chega de anúncios

    • Prioridade de compra em lançamentos

    • Mais recursos no app do Afinador

    • Atendimento Prioritário

    • Descontos nos produtos Cifra Club

    • Ajude a produzir mais conteúdo

    00:00 / 00:00

    Cifra Club Pro

    Aproveite o Cifra Club com benefícios exclusivos e sem anúncios
    Cifra Club Pro
    Aproveite o Cifra Club com benefícios exclusivos e sem anúncios
    OK