Cifra Club

Tus Latidos

Calibre 50

Cifra: Principal (violão e guitarra)
Selo Cifra Club: esta cifra foi revisada para atender aos critérios oficiais da nossa Equipe de Qualidade.
tom: G
Intro:

(Am D Am D)

E|-----------------------8----------------8--------11-9-11-8-11---|
B|-----------11-11-9-11---11-11-11-9-11-----11-----------------11-|
G|----/10-10------------------------------------------------------|
D|----------------------------------------------------------------|
A|----------------------------------------------------------------|
E|----------------------------------------------------------------|

E|-----------------------8--------------8-8/11-------|
B|-----------11-11-9-11---11-11-11-9-11---8/11-------|
G|----/10-10-----------------------------------------|
D|---------------------------------------------------|
A|---------------------------------------------------|
E|---------------------------------------------------|





C                  D
Hace unos mese la conocí por face
Am                    G
Sus ojos, su sonrisa tienen un no sé que
C                D
En unas horas ya éramos buenos amigos
Am                   D
Miro sus fotos y me encanta ya estoy convencido
C                       D
Es poco el tiempo pero todo sabe de mi
Am              G
Jamás imagine enamorarme así
C                     D                     Am
A que sabrá sus besos me lo pregunto y un suspiro
D
Aumenta mis latidos
           G
Y aunque nunca te he tocado
          Em
Y aunque nunca te he besado
         C          A7
Te amo tanto que parece
              D
Que te hice mías tantas veces
G
Y aunque no nos conocemos
         Em
Y aunque esto parezca cuento
C                   A7
Solo quiero estar contigo
       D                        Am
Y algún día estar sintiendo tus latidos.
Outros vídeos desta música
    1.220 exibições
      • ½ Tom
      • A
      • Bb
      • B
      • C
      • Db
      • D
      • Eb
      • E
      • F
      • F#
      • G
      • Ab
    • Adicionar à lista

    Afinação da cifra

    Afinador online

      0 comentários

      Ver todos os comentários

      Conseguiu tocar?

      0Tocaram0Ainda não

      Grave um vídeo tocando Tus Latidos e nos envie!

      Toque também

      1. Imagem do artista Banda El Recodo De Cruz LizárragaLa Mejor de Todas Banda El Recodo De Cruz Lizárraga
      2. Imagem do artista Gerardo OrtizCara a la muerte Gerardo Ortiz
      3. Imagem do artista Banda Los RecoditosMe Sobrabas Tú Banda Los Recoditos
      4. Imagem do artista Banda CarnavalPídeme Banda Carnaval

      Entre para o Cifra Club PRO

      Tenha acesso a benefícios exclusivos no App e no Site

      • Chega de anúncios

      • Badges exclusivas

      • Mais recursos no app do Afinador

      • Atendimento Prioritário

      • Aumente seu limite de lista

      • Ajude a produzir mais conteúdo

      Cifra Club Pro

      Aproveite o Cifra Club com benefícios exclusivos e sem anúncios
      Cifra Club Pro
      Aproveite o Cifra Club com benefícios exclusivos e sem anúncios
      Ops (: Contenido disponible sólo en portugués.
      OK