Cifra Club

Funeral Singers

Califone

Cifra: Principal (violão e guitarra)
Selo Cifra Club: esta cifra foi revisada para atender aos critérios oficiais da nossa Equipe de Qualidade.
tom: Eb
Afinação da 6ª corda em D

E|--------------------------------------------------
B|--------------------------------------------------
G|--------------------------------------------------
D|---1/8--8-8-8-8-8-8-8-8-3-3-3-3-3-3-3-3-3-3-3-3-3-
A|---1/8--8-8-8-8-8-8-8-8-3-3-3-3-3-3-3-3-3-3-3-3-3-
D|---1/8--8-8-8-8-8-8-8-8-3-3-3-3-3-3-3-3-3-3-3-3-3-
            PM. PM. PM. PM. PM. PM. PM. PM. PM. PM.

E|-------------------------------------------------|
B|-------------------------------------------------|
G|-------------------------------------------------|
D|-6-6-6-6-6-6-6-6-6-6-6-1-1-1-1-1-1-1-1-1-1-1-1-1-| (Repetir Toda a Música)
A|-6-6-6-6-6-6-6-6-6-6-6-1-1-1-1-1-1-1-1-1-1-1-1-1-|
D|-6-6-6-6-6-6-6-6-6-6-6-1-1-1-1-1-1-1-1-1-1-1-1-1-|
   PM. PM. PM. PM. PM. PM. PM. PM. PM. PM. PM. PM. 


A little narcotic warm on me 
What will I do without the weight of you.

Funeral singers wail
Charity fails whose child are you now.

The lighthouse keeper grazed the lip
Spread like a fog 
stood in the weather and prayed for a push but doesn't take 
the jump again tonight.

the book is aching for the tree
Return return return to me
All my friends, all my friends. 
All my friends are weeds and rain

All my friends are half-gone birds
Are magnets all my friends are words 

All my friends are funeral singers 
funeral singers. 
Funeral singers wailing.

A spark is aching for the light
Return return return tonight
All my friends, all my friends. all my friends, 
are keeping time.

All my friends have just quit trying, all my friends are funeral singers.
Funeral singers 
Funeral singers wailing.
Outros vídeos desta música
    1.113 exibições
      • ½ Tom
      • A
      • Bb
      • B
      • C
      • Db
      • D
      • Eb
      • E
      • F
      • F#
      • G
      • Ab
    • Adicionar à lista

    Afinação da cifra

    Afinador online

      0 comentários

      Ver todos os comentários

      Entre para o Cifra Club PRO

      Tenha acesso a benefícios exclusivos no App e no Site

      • Chega de anúncios

      • Badges exclusivas

      • Mais recursos no app do Afinador

      • Atendimento Prioritário

      • Aumente seu limite de lista

      • Ajude a produzir mais conteúdo

      Cifra Club Pro

      Aproveite o Cifra Club com benefícios exclusivos e sem anúncios
      Cifra Club Pro
      Aproveite o Cifra Club com benefícios exclusivos e sem anúncios
      Ops (: Contenido disponible sólo en portugués.
      OK