Cifra Club

Aprenda

Blame

Calvin Harris

Cifra: Principal (violão e guitarra)
Tom: D#
Intro:

E|----------------------------------------------------------|
B|-----8--------11--------8-------8-----4/6-----------------|
G|----------------------------------------------------------|   (2x)
D|--10--10----13--13----8--8----6---6-----------------------|
A|----------------------------------------------------------|
E|----------------------------------------------------------|

Cm
Can't be sleeping
Eb
Keep on waking
Bb                       Ab
Without the woman next to me
Cm
Guilt is burning
Eb
Inside I'm hurting
Bb                        Ab
This ain't a feeling I can keep

Refrão:
                   Ab       Cm
So blame it on the night iight
                  Bb
Don't blame it on me
                  Bb
Don't blame it on me
               Ab       Cm
Blame it on the night iight
                  Bb
Don't blame it on me
                  Bb
Don't blame it on me
               Ab       Cm
Blame it on the night iight
                  Bb
Don't blame it on me
                  Bb
Don't blame it on me

Riff depois do refrão: 2x

E|---------------------------------------------------
B|------8-----8-----8-----8--------------------------
G|---------------------------10----------------------    2x
D|--10----10----10----10-----------------------------
A|---------------------------------------------------
E|---------------------------------------------------

E|---------------------------------------------------
B|-----6----6----6----6------------------------------
G|-----------------------7---------------------------
D|--8----8----8----8---------------------------------
A|---------------------------------------------------
E|---------------------------------------------------

E|---------------------------------------------------
B|-----11----11----11----11--------------------------
G|---------------------------10/12-------------------
D|--12----12----12----12-----------------------------
A|---------------------------------------------------
E|---------------------------------------------------

Cm                     Eb
Can't you see it, I was manipulated
Bb                         Ab
I had to let her through the door
Cm
I had no choice in this
Eb
I was the friend she missed
Bb                Ab
She needed me to talk

Refrão 2x

Riff do final:

E|---------------------------------------------------
B|---------------------------------------------------
G|---------------------------------------------------
D|----------3---3-----------------5---3------------------  8x
A|---6-6-6----6---6-------6-6-6-----6---6------------
E|---------------------------------------------------

Oh I'm so sorry, so sorry baby
(I'll be better this time)
I will be better this time
I got to say I'm so sorry
Oh I promise
(I'll be better this time, I will be better this time)

Don't blame it on me
Don't blame it on me

E|---------------------------------------------------
B|------8-----8-----8-----8--------------------------
G|---------------------------10----------------------    2x
D|--10----10----10----10-----------------------------
A|---------------------------------------------------
E|---------------------------------------------------

E|---------------------------------------------------
B|-----6----6----6----6------------------------------
G|-----------------------7---------------------------
D|--8----8----8----8---------------------------------
A|---------------------------------------------------
E|---------------------------------------------------

E|---------------------------------------------------
B|-----11----11----11----11--------------------------
G|---------------------------10/12-------------------
D|--12----12----12----12-----------------------------
A|---------------------------------------------------
E|---------------------------------------------------
Composição de Calvin Harris / James Newman / John Newman
Colaboração e revisão:
88.077 exibições
    • ½ Tom
    • A
    • Bb
    • B
    • C
    • Db
    • D
    • Eb
    • E
    • F
    • F#
    • G
    • Ab
  • Adicionar à lista

    0 comentários

    Mostrar mais comentários

    Conseguiu tocar?

    8 Tocaram 2 Ainda não

    Grave um vídeo tocando Blame e mande pra gente!

    00:00 / 00:00
    outros vídeos desta música
    repetir qualidade Automático
    Outros vídeos desta música
    00:00 / 00:00
    Automático

    Cifra Club Pro

    Aproveite o Cifra Club com benefícios exclusivos e sem anúncios
    7 dias grátis
    Cifra Club Pro
    Aproveite o Cifra Club com benefícios exclusivos e sem anúncios
    7 dias grátis
    OK