Cifra Club

Aprenda

Feels

Calvin Harris

Cifra: Principal (violão e guitarra)
Tom: D
[Intro]  Em7  A  F#m  B

[Katy Perry]
Ah, yeah
[Pharrell Williams]
Hey!

       Em7          A    F#m    B
Now, nothing ever last forever, no
       Em7        A    F#m    B
One minute you're here and the next you're gone
   Em7         A        F#m     B
So I respect you, wanna take it slow
         Em7          A         F#m          B
I need a mental receipt to know this moment I owe

[Pharrell Williams]
     
       Em7        A      F#m       B
Do you mind if I steal a kiss, tho? (Chop, chop)
         Em7             A          F#m   B
A little souvenir, can I steal it from you?
       Em7     A        F#m      B
To memorize the way you shock me
                    Em7
The way you move it here (hey)
            A           F#m   B
Just wanna feel it from you (hey)

[Katy Perry]

Em7                A          F#m  B
Don't be afraid to catch feels
Em7                     A      F#m  B
Ride drop top and chase thrills (hey)
Em7                           A     F#m  B
I know you ain't afraid to pop pills (hey)
           Em7                       A
Baby, I know you ain't scared to catch feels
 F#m       B
Feels with me

[Pharrell Williams]
 
Em7               A      F#m              B
I'm your window shopper, sucker for your love, oh
Em7               A       F#m     B
I'm wearing your goggles, virtual reality
Em7              A        F#m            B
It ain't what it cost you, it might be a dollar
Em7           A            F#m        B
As long as it shocks you, memory, electricity

[Pharrell Williams]

       Em7        A      F#m       B
Do you mind if I steal a kiss, tho? (Chop, chop)
         Em7             A          F#m   B
A little souvenir, can I steal it from you?
       Em7     A        F#m      B
To memorize the way you shock me
                    Em7
The way you move it here (hey)
            A           F#m   B
Just wanna feel it from you (hey)


[Katy Perry]

Em7                A          F#m  B
Don't be afraid to catch feels
Em7                     A      F#m  B
Ride drop top and chase thrills (hey)
Em7                           A     F#m  B
I know you ain't afraid to pop pills (hey)
           Em7                       A
Baby, I know you ain't scared to catch feels
 F#m       B
Feels with me

[Big Sean]

         Em            Em   G5
E|------------------------------------------------------------|
B|------------------------------------------------------------|
G|------------------------------------------------------------|
D|------------------------------------------------------------|
A|---2-----2------2--2--5~--------------------------------|
E|---0-----0------0--0--3~--------------------------------|
 
                                   OU

           Em         Em   G5
E|------------------------------------------------------------|
B|------------------------------------------------------------|
G|------------------------------------------------------------|
D|---2-----2------2--2--5~--------------------------------|
A|---2-----2------2--2--5~--------------------------------|
E|---0-----0------0--0--3~--------------------------------|



Goddamn, I know you love to make an entrance (babe)

Do you like getting paid or getting paid attention? (Like, woah)

You mixed the wrong guys with the right intentions

In the same bed, but it still feel long distance (yeah, yeah)

She's looking for a little more consistency (I know)

But when you stop looking, you gon' find what's meant to be

E|---------------------------------------------
B|----------------------------------------------
G|--------------------------------------------
D|-------------------------------------------
A|----7--5--7--9--7--9-10-9-10--12---
E|----5--3--5--7--5--7--8--7--8--10----

And honestly, I'm way too done with the hoes (no)

I cut off all my exes for your x and o's

===================\\========================

              E5                      G6/E
E|---------------------10-10-10--10--10---- 
B|----------------------8--8--8-----8---8-----
G|------9--9------------------------------------
D|------9--9----------9--9--9-----9---9------
A|------7--7----------7--7--7-----7---7------
E|------------------------------------------------

              E5                    G6/E          Em6
E|---------------------10-10-10--10--10--9-------
B|----------------------8--8--8-----8---8---8--------
G|------9--9------------------------------------------
D|------9--9----------9--9--9-----9---9---9--------
A|------7--7----------7--7--7-----7---7---7---------
E|-----------------------------------------------------

I feel my old flings was just preparing me (me)

When I say I want you, say it back, parakeet (par')

Fly in first-class through the air, Airbnb (woah)

I'm the best you had, you just be comparing me to me (woah)

I'ma at this at you, if I put you on my phone (woah)

And upload it, it'll get maximum views

E|----------------------------------------------------
B|---------------------------------------------------
G|--------------------------------------------------
D|---------------------------------------------------
A|----7--5--7--9--7--9-10-9-10--12-----------
E|----5--3--5--7--5--7--8--7--8--10--------10/---


I came in through in the clutch with the lipsticks and phones

Wear your fave cologne just to get you alone

[Katy Perry & Big Sean]

Em7                                A  G  F#m  B
Don't be afraid to catch feels (ha)

(Don't be afraid to catch these feels)
Em7                                   A  G  F#m  B
Ride drop top and chase thrills (yeah)

(Yeah yeah, yeah yeah, yeah yeah)
Em7                                         A  G  F#m  B
I know you ain't afraid to pop pills (I know)
           Em7                                             A     G
Baby, I know you ain't scared to catch feels

(Woah, woah, woah)
F#m              B
Feels with me

[Katy Perry & Big Sean]

Em7                      A          F#m  B
Don't be afraid to catch feels   (no, no)

Don't be afraid, baby

Don't be afraid
Em7                     A      F#m  B
Ride drop top and chase thrills (woah, okay)
Em7                                         A  G  F#m  B
I know you ain't afraid to pop pills (hey)

I know, I know, I know
           Em7                       A
Baby, I know you ain't scared to catch feels
 F#m       B
Feels with me
Composição de Adam Wiles / Brittany Hazzard / Katy Perry / Pharrell Williams / Sean Anderson
Colaboração e revisão:
  • Amanda Brandi
  • Vinicius Carvalho
13.208 exibições
    • ½ Tom
    • A
    • Bb
    • B
    • C
    • Db
    • D
    • Eb
    • E
    • F
    • F#
    • G
    • Ab
  • Adicionar à lista

    0 comentários

    Mostrar mais comentários

    Conseguiu tocar?

    5 Tocaram 0 Ainda não

    Grave um vídeo tocando Feels e mande pra gente!

    00:00 / 00:00
    outros vídeos desta música
    repetir qualidade Automático
    Outros vídeos desta música
    00:00 / 00:00
    Automático

    Cifra Club Pro

    Aproveite o Cifra Club com benefícios exclusivos e sem anúncios
    7 dias grátis
    Cifra Club Pro
    Aproveite o Cifra Club com benefícios exclusivos e sem anúncios
    7 dias grátis
    OK