Cifra Club

Aprenda

Outside

Calvin Harris

Cifra: Principal (violão e guitarra)
Tom: F
Intro: Bb  G  Dm  C

E|---------------------6-5---5-5---------------------|
B|--6-6--------------------------6-6--6---8-8-5-5--5-|
G|------7-7-7--7-7-5-7-------------------------------|
D|---------------------------------------------------|
A|---------------------------------------------------|
E|---------------------------------------------------|

Bb                   Gm
Look at what you've done
Dm            C
Stand still, fallin' away from me
Bb                 Gm
When it takes so long
Dm          C
Fire's out, what do you want to be?
Bb          Gm
I'm holdin' on
Dm         C
Myself was never enough for me
Bb            Gm
Gotta be so strong
          Dm
There's a power in what you do
     C
Now, every other day I'll be watching you

Refrão ( Intro e base juntos - Bb  Gm )

Dm
Show you what it feels like
C
Now I'm on the outside

( Bb  Gm  )

Dm                        C
We did everything right, now I'm on the outside

( Bb  Gm )

Dm
Show you what it feels like
C
Now I'm on the outside

( Bb  Gm )

Dm                        C
We did everything right, now I'm on the outside

Batida 2x: Bb  Gm  Dm  C

E|---------------------6-5---5-5---------------------|
B|--6-6--------------------------6-6--6---8-8-5-5--5-|
G|------7-7-7--7-7-5-7-------------------------------|
D|---------------------------------------------------|
A|---------------------------------------------------|
E|---------------------------------------------------|

Bb                     Gm
Though you give me no reason
Dm
For me to stay close to you
C
Tell me what lovers do
Bb                Gm
How are we still breathing?
Dm
It's never for us to choose
C
I'll be the strength in you
Bb          Gm
I'm holdin' on
Dm         C
Myself was never enough for me
Bb          Gm
Gotta be so strong
          Dm
There's a power in what you do
     C
Now, every other day I'll be watching you

Refrão: ( Intro e base juntos - Bb  Gm )

Dm
Show you what it feels like
C
Now I'm on the outside

( Bb  Gm )

Dm                        C
We did everything right, now I'm on the outside

( Bb  Gm )

Dm
Show you what it feels like
C
Now I'm on the outside

( Bb  Gm )

Dm                        C
We did everything right, now I'm on the outside

Batida (2x):  Bb  Gm  Dm  C

E|---------------------6-5---5-5---------------------|
B|--6-6--------------------------6-6--6---8-8-5-5--5-|
G|------7-7-7--7-7-5-7-------------------------------|
D|---------------------------------------------------|
A|---------------------------------------------------|
E|---------------------------------------------------|

( Bb  Gm )

Dm
I'll show you what it feels like
C
Now I'm on the outside
 
( Bb  Gm )

Dm                                     C
I'll show you what it feels like

Refrão Final: 

E|---------------------6-5---5-5---------------------|
B|--6-6--------------------------6-6--6---8-8-5-5--5-|
G|------7-7-7--7-7-5-7-------------------------------|
D|---------------------------------------------------|
A|---------------------------------------------------|
E|---------------------------------------------------|


( Bb  Gm )

Dm
Show you what it feels like
C
Now I'm on the outside

( Bb  Gm )

Dm                       C
We did everything right, now I'm on the outside

Batida Final: Bb  Gm  Dm  C (4x)

E|---------------------6-5---5-5---------------------|
B|--6-6--------------------------6-6--6---8-8-5-5--5-|
G|------7-7-7--7-7-5-7-------------------------------|
D|---------------------------------------------------|
A|---------------------------------------------------|
E|---------------------------------------------------|
Colaboração e revisão:
37.904 exibições
    • ½ Tom
    • A
    • Bb
    • B
    • C
    • Db
    • D
    • Eb
    • E
    • F
    • F#
    • G
    • Ab
  • Adicionar à lista

    0 comentários

    Mostrar mais comentários

    Conseguiu tocar?

    13 Tocaram 0 Ainda não

    Grave um vídeo tocando Outside e mande pra gente!

    00:00 / 00:00
    outros vídeos desta música
    repetir qualidade Automático
    Outros vídeos desta música
    00:00 / 00:00
    Automático

    Cifra Club Pro

    Aproveite o Cifra Club com benefícios exclusivos e sem anúncios
    7 dias grátis
    Cifra Club Pro
    Aproveite o Cifra Club com benefícios exclusivos e sem anúncios
    7 dias grátis
    OK