Cifra Club

This Is Me

Camp Rock

Cifra: Principal
exibições 221.641
Tom: D
(afinação 1/2 tom abaixo)

(intro)  (riff se toca no inicio e no primeiro verso)

      Bm      G         D       A
Eb|-------5---------3-2-----0---------0-----|
Bb|-----3---3---3---------3---3-----3---3---|
Gb|---4-------0---0-----2---------2---------|
Db|-----------------------------2-----------|
Ab|-----------------------------------------|
Eb|-----------------------------------------|

Bm                G
I've always been the kind of girl
D          A
That hid my face
Bm                G
So afraid to tell the world
D          A
What I've got to say
Bm                G
But I have this dream
D          A
Right inside of me
Bm                G          D
I'm gonna let it show, it's time
Asus
To let you know
G        A
To let you know

Eb|------------------|
Bb|------------------|
Gb|------------------|  (pré-refrão)
Db|---5~---7-7-7-7---|
Ab|---5~---7-7-7-7---|
Eb|---3~---5-5-5-5---|

(refrão)
     G            D        A         Bm
Eb|------------------------------------------------|
Bb|------------------------------------------------|
Gb|----------------7-77-77-------------------------|
Db|---5-5-5-55-55--7-77-77--7-7-7-77-77--9-99-99---|
Ab|---5-5-5-55-55--5-55-55--7-7-7-77-77--9-99-99---|
Eb|---3-3-3-33-33-----------5-5-5-55-55--7-77-77---|

      G            D        A          Bm
Eb|-------------------------------------------|
Bb|-------------------------------------------|
Gb|----------------7-77-77--------------------|
Db|---5-5-5-55-55--7-77-77--7-7-7-77-77-7/9---|
Ab|---5-5-5-55-55--5-55-55--7-7-7-77-77-7/9---|
Eb|---3-3-3-33-33-----------5-5-5-55-55-5/7---|

      Bm          G       D            A
Eb|---------------------------------------------|
Bb|---------------------------------------------|
Gb|---4-4-4-44-44---------7-7-7-77-77-----------|
Db|---4-4-4-44-44-5-5-55--7-7-7-77-77--7-7-77---|
Ab|---2-2-2-22-22-5-5-55--5-5-5-55-55--7-7-77---|
Eb|---------------3-3-33---------------5-5-55---|

      Em              G       A
Eb|-------------------------------|
Bb|-------------------------------|
Gb|-------------------------------|
Db|---2-2-2-2-2-2-2-2-5-5-5-5-7~--|
Ab|---2-2-2-2-2-2-2-2-5-5-5-5-7~--|
Eb|---0-0-0-0-0-0-0-0-3-3-3-3-5~--|

G             D
This is real, this is me
A          Bm
I'm exactly where I'm supposed to be, now
G             D           A
Gonna let the light, shine on me
Bm            G
Now I've found, who I am
D             A
There's no way to hold it in
Em             G      A
No more hiding who I want to be

This is me

(riff 1)
      Bm      G         D       A
Eb|-------5---------3-2-----0---------0-----|
Bb|-----3---3---3---------3---3-----3---3---|
Gb|---4-------0---0-----2---------2---------|
Db|-----------------------------2-----------|
Ab|-----------------------------------------|
Eb|-----------------------------------------|

(verso 2)

      A  D
Eb|---------------|
Bb|---------------|
Gb|-----------7---|
Db|---xx7-7-7-7---|
Ab|---xx7-7-7-5---|
Eb|---xx5-5-5-----|
      Bm   G     D     Em
Eb|---------------------------|
Bb|---------------------------|
Gb|---4-4--------7-77---------|  x4
Db|---4-4--5-55--7-77--2-22---|
Ab|---2-2--5-55--5-55--2-22---|
Eb|--------3-33--------0-00---|

Bm           G
Do you know what it's like
D            A
To feel so in the dark
Bm           G
To dream about a life
D            A
Where you're the shining star
Bm           G
Even though it seems
D            A
Like it's too far away
Bm           G
I have to believe in myself
D            A        G    A
It's the only way

(chorus) Same ss before
G             D
This is real, this is me
A          Bm
I'm exactly where I'm supposed to be, now
G             D           A
Gonna let the light, shine on me
Bm            G
Now I've found, who I am
D             A
There's no way to hold it in
Em             G      A
No more hiding who I want to be

This is me

(solo)
E |------------------------------------------------------------------------------|
B |-------10------------------10-10/12-17-------10----------------17-----17--17--|
G |-11-12---12b-11------11-12-------------11-12----12b-11----14-14--14-14--14----|
D |----------------12-------------------------------------12---------------------|
A |------------------------------------------------------------------------------|
E |------------------------------------------------------------------------------|

G                 D
You're the voice I hear inside my head
A              Bm
The reason that I'm singing
G                 D            A
I need to find you, I gotta find you
Bm                G
You're the missing piece I need
D                 A
The song inside of me
Em               G        A
I need to find you, I gotta find you

G             D
This is real, this is me
Asus          Bm
I'm exactly where I'm supposed to be, now
G             D           A
Gonna let the light, shine on me
Bm            G
Now I've found, who I am
D             A
There's no way to hold it in
Em              G      A
No more hiding who I want to be

This is me

(Mesmos acordes)
You're the missing piece I need
The song inside of me (this is me)
You're the voice I hear inside my head
The reason that I'm singing
Bm            G
Now I've found, who I am
D             A
There's no way to hold it in
Em              G      A
No more hiding who I want to be

This is me
Acordes para:
    Colaboração e revisão:

    0 comentários

      mostrar mais comentários

      Conseguiu tocar?

      19tocaram0ainda não

      Grave um vídeo tocando This Is Me e mande pra gente!

      00:00 / 00:00
      outros vídeos desta música
      repetirqualidadeautomática
      Outro vídeos desta música
        00:00 / 00:00
        automática
        OK