Cifra Club

Aprenda

Solitude

Jerry Cantrell

Cifra: Principal (violão e guitarra)
Tom: C
Album: Degradation Trip
Tabbed by: Mike Lamb (Davematthewsman)

Tuning: Down 1 step [DGCFAD]

Ok, Nobody else has tabbed this that i could find so here it is. Its an awsome 
song and fun to play. (and yes, most of the album is played down 1 step unlike 
Boggy Depot which was only down a 1/2 step)

p=pull off
h=hammer on
/=slide up
\=slide down

i haven't listed the correct amount of times to strum the chords because its 
really easy to figure out yourself (if there is only one chord then there is 
only one of that chord).

Intro
D|-------------------------0-0-0-0--2------------||
A|-2p0---------2-----------1-1-1-1--3--2-2-2-2---||
F|-2----2--------2---------0-0-0-0--2--2-2-2-2---||
C|-2------2--------2-------2-2-2-2--0--2-2-2-2---||
G|-0--------0---------2/3--3-3-3-3-----0-0-0-0---||
D|-----------------------------------------------||


Verse
D|--------0-----------------0----------------2------------
A|----------0-----------------3-----3------3---3------3---
F|------------0----------0------0--------2-------2--------
C|-----2-----------2---2----------2----0-----------0------
G|---2-----------2---3------------------------------------
D|-0------------------------------------------------------

D|--------0-------------||
A|-----------0----------||
F|-----2--------2---2---||
C|---2------------2-----||
G|-0--------------------||
D|----------------------||


Pre-Chorus("When hurting yourself feels right")
D|-3-3-3-3--2-2---3-3-3-3--2-2-|                                     
A|-3-3-3-3--3-3---3-3-3-3--3-3-|
F|-0-0-0-0--2-2---0-0-0-0--2-2-|
C|-2-2-2-2--0-0---2-2-2-2--0-0-|                                     
G|-3-3-3-3--------3-3-3-3------|
D|-----------------------------|

("Take the time to pull the weeds")
D|-0-0-0-0--0-0-0-0---0-0-0-0--0-0-0-0--||
A|-0-0-0-0--3-3-3-3---0-0-0-0--3-3-3-3--||
F|-2-2-2-2--0-0-0-0---2-2-2-2--0-0-0-0--||
C|-2-2-2-2--2-2-2-2---2-2-2-2--2-2-2-2--||                           
G|-0-0-0-0--3-3-3-3---0-0-0-0--3-3-3-3--||
D|--------------------------------------||


Chorus (...Or seal your doom)
D|-0-0--0-0-0-0-0--0-0--0-0-0-0-0--||Repeat a couple of times.
A|-0-0--0-0-0-0-0--0-0--0-0-0-0-0--||                                
F|-0-0--0-0-0-0-0--0-0--0-0-0-0-0--||
C|-0-0--2-2-2-2-2--0-0--2-2-2-2-2--||
G|-2-2--2-2-2-2-2--2-2--2-2-2-2-2--||
D|-3-3--0-0-0-0-0--3-3--0-0-0-0-0--||


Song Layout is pretty basic so ill leave it out.

Lyrics:

(verse 1)
There's no out, downside up for good
No light, reflection understood
Had to try, perversion satisfied
insane...so i indulge the beast awhile

(pre-chorus)
When hurting yourself feels right
And there's nothing familiar in sight
Take the time to pull the weeds
choking flowers in your life...

(chorus)
Or seal your doom
Cold transparent blue
Locked inside a room
In solitude
 
(verse 2)
There's no flesh, my own ghost awaits
Unclean, defiled, hallucinatory state
Lust, sloth, not my only sins
it's just how, when it's time, on a degradation trip...yeah

(pre-chorus)

(Chorus)
Or seal your doom
Cold transparent blue
Locked inside a room
In solitude
Insanity takes you 
So black it's untrue

So black it's untrue...
Composição de Jerry Cantrell
1.149 exibições
    • ½ Tom
    • A
    • Bb
    • B
    • C
    • Db
    • D
    • Eb
    • E
    • F
    • F#
    • G
    • Ab
  • Adicionar à lista

    0 comentários

    Mostrar mais comentários

    Conseguiu tocar?

    1 Tocaram 0 Ainda não

    Grave um vídeo tocando Solitude e mande pra gente!

    00:00 / 00:00
    outros vídeos desta música
    repetir qualidade Automático
    Outros vídeos desta música
    00:00 / 00:00
    Automático
    OK