Cifra Club

Como Devia Estar

Capital Inicial

Cifra: Principal
exibições 325.889
Tom: E
INTRO (E Em F)2x E Em (Em)

Guitarra solo
   (E Em)    (F)
e|----------------------------------------------------------------------------------------------
B|-(10Vezes)-12--...--(10Vezes)-12-...----------------------------------------------------------
G|-----------14b-...------------14-...----------------------------------------------------------
D|----------------------------------------------------------------------------------------------
A|----------------------------------------------------------------------------------------------
E|----------------------------------------------------------------------------------------------

b-> bend
Obs: O tempo e a quantidade de batidas pode estar erradas, é melhor escutar bem...

Guitarra Base

  (E Em)               (F)
e|----------------------------------------------------------------------------------------------
B|----------------------------------------------------------------------------------------------
G|------------------------------------0---------------------------------------------------------
D|-2-2-2-2-2-2-2-2-2-2--3-3-3-3-3-0-2---2-0-----------------------------------------------------
A|-2-2-2-2-2-2-2-2-2-2--3-3-3-3-3-----------2-0-------------------------------------------------
E|-0-0-0-0-0-0-0-0-0-0--1-1-1-1-1---------------------------------------------------------------

F#m              A   B       E
Folhas verdes caem no jardim
F#m              A   B       E
Coisas que começam pelo fim
F#m              B4  B
Como chuvas de verão
F#m                B4  B
Caindo em outra estaçao

Aonde quer que eu vá 

Refrão
        
A C#m A   E  F#m  A             E 
Haha, um dia tudo volta para seu lugar
A C#m A   E  F#m  A             E       
Haha, um dia vai ficar como devia estar
F#m    A   B         E  
Vai ficar, como devia estar

INTRO

Guitarra solo
   (E Em)    (F)
e|----------------------------------------------------------------------------------------------
B|-(10Vezes)-12--...--(10Vezes)-12-...----------------------------------------------------------
G|-----------14b-...------------14-...----------------------------------------------------------
D|----------------------------------------------------------------------------------------------
A|----------------------------------------------------------------------------------------------
E|----------------------------------------------------------------------------------------------

Guitarra Base

  (E Em)               (F)
e|----------------------------------------------------------------------------------------------
B|----------------------------------------------------------------------------------------------
G|------------------------------------0---------------------------------------------------------
D|-2-2-2-2-2-2-2-2-2-2--3-3-3-3-3-0-2---2-0-----------------------------------------------------
A|-2-2-2-2-2-2-2-2-2-2--3-3-3-3-3-----------2-0-------------------------------------------------
E|-0-0-0-0-0-0-0-0-0-0--1-1-1-1-1---------------------------------------------------------------

F#m              A   B       E
Prédios derretendo sob o céu
F#m              A   B       E
Sonhos construidos com papel
F#m              B4  B
Carros vem e vão
F#m              B4  B          
Correndo em minha direção

Aonde quer que eu vá 

Refrão
        
A C#m A   E  F#m  A             E 
Haha, um dia tudo volta para seu lugar
A C#m A   E  F#m  A             E       
Haha, um dia vai ficar como devia estar
F#m    A   B         E  
Vai ficar, como devia estar

solo 
   (F#m      A     B   E         F#m       A    B   E
e|-----------------------------------------------------|
B|-----------------------------------------------------|
G|-----------------2p1--------------------------2p1-4--|
D|------2-2---2--------2--------------2-2---2----------|
A|--2h4-----4---4--------2h4-2----2h4-----4---4--------|
E|-----------------------------------------------------|
    E                              )
e|-----------------------------------------------------|
B|-----------------------------------------------------|
G|--9-9-8-8-6-6-4-4-2-2-1-1-0-1------------------------|
D|--------------------------------4--------------------|
A|-----------------------------------------------------|
E|-----------------------------------------------------|

F#m              B4  B
Como chuvas de verão
F#m                B4  B
Caindo em outra estaçao

Aonde quer que eu vá 

Refrão
        
A C#m A   E  F#m  A             E 
Haha, um dia tudo volta para seu lugar
A C#m A   E  F#m  A             E       
Haha, um dia vai ficar como devia estar
F#m    A   B         E  
Vai ficar, como devia estar

INTRO

Guitarra solo
   (E Em)    (F)
e|----------------------------------------------------------------------------------------------
B|-(10Vezes)-12--...--(10Vezes)-12-...----------------------------------------------------------
G|-----------14b-...------------14-...----------------------------------------------------------
D|----------------------------------------------------------------------------------------------
A|----------------------------------------------------------------------------------------------
E|----------------------------------------------------------------------------------------------

Guitarra Base

  (E Em)               (F)
e|----------------------------------------------------------------------------------------------
B|----------------------------------------------------------------------------------------------
G|------------------------------------0---------------------------------------------------------
D|-2-2-2-2-2-2-2-2-2-2--3-3-3-3-3-0-2---2-0-----------------------------------------------------
A|-2-2-2-2-2-2-2-2-2-2--3-3-3-3-3-----------2-0-------------------------------------------------
E|-0-0-0-0-0-0-0-0-0-0--1-1-1-1-1---------------------------------------------------------------
Acordes para:
    Composição: Alvin L. / Dinho Ouro Preto / Kiko ZambianchiColaboração e revisão:
    • katryson
    • fernando
    • Thiago Simões

    0 comentários

      mostrar mais comentários

      Conseguiu tocar?

      10tocaram1ainda não

      Grave um vídeo tocando Como Devia Estar e mande pra gente!

      00:00 / 00:00
      outros vídeos desta música
      repetirqualidadeautomática
      Outro vídeos desta música
        00:00 / 00:00
        automática
        OK