Cifra Club

Aprenda

Back to 55

Carbona

Cifra: Principal (violão e guitarra)
Quer fazer aulas de música com a gente? Responda essas perguntas
e nos ajude nesse projeto! →
tom: B
Letra

We're going back to basics
Yeah! Yeah!
We're going back to basics
All right!
We're going back to 1955
All the girls must dance
The rockers freak all night
I'll tell you this is 1955



Introduçao
 e|----------------------------------------------------------------------|
 B|----------------------------------------------------------------------|
 G|------------9-9-9-9-9--11-11-11-11--9-9-9-9-9-----------11-11-11-11-11|
 D|-9-9-9-9-9--9-9-9-9-9--11-11-11-11--9-9-9-9-9-9-9-9-9-9-11-11-11-11-11|
 A|-9-9-9-9-9--7-7-7-7-7---9--9--9--9--7-7-7-7-7-9-9-9-9-9--9--9--9--9--9|
 E|-7-7-7-7-7------------------------------------7-7-7-7-7---------------|

 Introduçãoo com um solo que eu não tive saco de tirar. :/

 Firts Rule
 e|----------------------------------------------------------------------|
 B|----------------------------------------------------------------------|
 G|--------------9-9-9--11-11-11-------------9-9-9--11-11-11-------------|
 D|---9-9-9-9-9--9-9-9--11-11-11-------------9-9-9--11-11-11-------------|
 A|---9-9-9-9-9--7-7-7---9--9--9--9-9-9-9-9--7-7-7---9--9--9-------------|
 E|---7-7-7-7-7-------------------7-7-7-7-7------------------------------|

 Pontezinha
 e|---------------------------------------|
 B|---------------------------------------|
 G|--------------9-9-9--11-11-11----------|
 D|---6-6-6-6-6--9-9-9--11-11-11--9-9-9-9-|
 A|---6-6-6-6-6--7-7-7---9--9--9--9-9-9-9-|
 E|---4-4-4-4-4-------------------7-7-7-7-|

 Second Rules

 e|----------------------------------------------------------------------|
 B|----------------------------------------------------------------------|
 G|---9-9-9-9-9--11-11-11----------------------9-9-9-9-9--11-11-11-------|
 D|---9-9-9-9-9--11-11-11--9-9-9-9-9--6-6-6-6--9-9-9-9-9--11-11-11--9-9-9|
 A|---7-7-7-7-7---9--9--9--9-9-9-9-9--6-6-6-6--7-7-7-7-7---9--9--9--9-9-9|
 E|------------------------7-7-7-7-7--4-4-4-4-----------------------7-7-7|
 "And All The Girls Must Dance..."
Composição de Henrique Badke
Colaboração e revisão:
  • leonardo barbosa
1.751 exibições
    • ½ Tom
    • A
    • Bb
    • B
    • C
    • Db
    • D
    • Eb
    • E
    • F
    • F#
    • G
    • Ab
  • Adicionar à lista

    0 comentários

    Ver todos os comentários

    Conseguiu tocar?

    0 Tocaram 0 Ainda não

    Grave um vídeo tocando Back to 55 e nos envie!

    00:00 / 00:00
    Outros vídeos desta música
    Repetir Qualidade Automático
    Outros vídeos desta música
    00:00 / 00:00
    Automático

    Cifra Club Pro

    Aproveite o Cifra Club com benefícios exclusivos e sem anúncios
    Cifra Club Pro
    Aproveite o Cifra Club com benefícios exclusivos e sem anúncios
    OK