Cifra Club

Aprenda

Lunático

Carbona

Cifra: Principal (violão e guitarra)
Quer fazer aulas de música com a gente? Responda essas perguntas
e nos ajude nesse projeto! →
tom: B
Intro 

e|-------------------------------------------------------------------------|
b|-------------------------------------------------------------------------|
g|---6-7-6---6-7-6--------6-7-6--------6-7-6---6-7-6---9-7-6---------------|
d|--7-------7-------9-7-9-------9-7---7-------7--------------9-7-6---6-7---|
a|-----------------------------------------------------------------9-------|
e|-------------------------------------------------------------------------|

B         F#             E
De vez em quando faz sol e eu penso em você     
B                 F#            B
De vez em quando chove e eu penso em você
                F#              E       
De vez em quando todo dia eu penso em você
     F#                E                
 Toda Noite eu penso em você
         F#    E     F#         B          F#   E       
 Não quer saber de nada nem ninguém, não quer saber de mim      
 F#     E
 Se afunda em noitadas  
 B       F#             E               
 Mesmo sabendo que não leva a nada                                      
                                                                                        
 B       F#     E        F#  B
 Por que você me chama de lunático?             
          F#   E     F# B
 Por que me chama de lunático?                  

     B     E B  F#
 -------------------------------------------
 -------------------------------------------
 ---------9---11-11-11-11-11-11-11-11-------
 -8/9-9-9-9-9-11-11-11-11-11-11-11-11-------
 -8/9-9-9-7-9--9--9--9--9--9--9--9--9-------
 -6/7-7-7---7-------------------------------

    B     E B  F#         E F#
 --------------------------------------------
 --------------------------------------------
 ---------9---11-11-11-11-9-11---------------
 -8/9-9-9-9-9-11-11-11-11-9-11---------------
 -8/9-9-9-7-9--9--9--9--9-7--9---------------
 -6/7-7-7---7--------------------------------
Compositor não encontrado.
Colaboração e revisão:
  • sabrina hayasaki
  • Daniela Pellá
9.215 exibições
    • ½ Tom
    • A
    • Bb
    • B
    • C
    • Db
    • D
    • Eb
    • E
    • F
    • F#
    • G
    • Ab
  • Adicionar à lista

    0 comentários

    Ver todos os comentários

    Conseguiu tocar?

    0 Tocaram 0 Ainda não

    Grave um vídeo tocando Lunático e nos envie!

    00:00 / 00:00
    Outros vídeos desta música
    Repetir Qualidade Automático
    Outros vídeos desta música
    00:00 / 00:00
    Automático

    Cifra Club Pro

    Aproveite o Cifra Club com benefícios exclusivos e sem anúncios
    Cifra Club Pro
    Aproveite o Cifra Club com benefícios exclusivos e sem anúncios
    OK