Cifra Club

Aprenda

Rebelde sem Causa

Carbona

Cifra: Principal (violão e guitarra)
tom: C
Riff 01
E|---------5-5-0-0-1-1-----------1-----3-3-----3-3------|
B|---------------------1-1-------------------------0000-|
G|-2-2-5-5---------------------5---0-0-----0-0----------|
D|-------------------------3-3--------------------------|
A|------------------------------------------------------|
E|------------------------------------------------------|

Riff 02
   A  F  C  E  
Riff 03
   D  F  C  G


Solo
e|--------------------------------------------|
B|--------------------------------------------|
G|----9--12------------------9-12-------------|
D|-7-------10--9-9-10-9--7-------10--9-9-10-9-|
A|--------------------------------------------|
E|--------------------------------------------|

e|--------------------------------------------|
B|--------------------------------------------|
G|----9--12------------------9-12-------------|
D|-7-------10--9-9-10-9--7-------10--9-9-10-9-|
A|--------------------------------------------|
E|--------------------------------------------|

e|--------------------------------8--------------|
B|-10------10-8-----------------10---------------|
G|-----9-12------7-5-4-----9--12-----8h9p8h9p8h9-|
D|----------------------7------------------------|
A|-----------------------------------------------|
E|-----------------------------------------------|


Riff 04

   Dm Am C  G


Agora Toque!


> INTRO
Riff 01


> PONTE
Riff 01 (Riff 02)


> VERSO 01
(Riff 02)
Meus dois pais me tratam muito bem
(O que é que você tem que não fala com ninguém?)
Meus dois pais me dão muito carinho
(Então porque você se sente sempre tão sozinho?)
Meus dois pais me compreendem totalmente
(Como é que cê se sente , desabafa aqui com a gente!)
Meus dois pais me dão apoio moral
(Não dá pra ser legal , só pode ficar mal !)


> PONTE
(Riff 02)
MAMA MAMA MAMA MAMA
(PAPA PAPA PAPA PAPA)


> VERSO 02
(Riff 03) 
Minha mãe até me deu essa guitarra
Ela acha bom que o filho caia na farra
E o meu carro foi meu pai que me deu
Filho homem tem que ter um carro seu
Fazem questão que eu só ande produzido
Se orgulham de ver o filhinho tão bonito
Me dão dinheiro prá eu gastar com a mulherada
Eu realmente não preciso mais de nada


> SOLO (Riff 02)


> VERSO 03
(Riff 04)
Meus pais não querem
Que eu fique legal
Meus pais não querem
Que eu seja um cara normal


> REFRÃO
(Riff 02)
Não vai dar , assim não vai dar
Como é que eu vou crescer sem ter com quem me revoltar
Não vai dar , assim não vai dar
Pra eu amadurecer sem ter com quem me rebelar


> PONTE
(Riff 02)
MAMA MAMA MAMA MAMA
(PAPA PAPA PAPA PAPA)
Compositor não encontrado.
Colaboração e revisão:
  • Anderson Garcia
4.084 exibições
    • ½ Tom
    • A
    • Bb
    • B
    • C
    • Db
    • D
    • Eb
    • E
    • F
    • F#
    • G
    • Ab
  • Adicionar à lista

    0 comentários

    Ver todos os comentários

    Conseguiu tocar?

    0 Tocaram 0 Ainda não

    Grave um vídeo tocando Rebelde sem Causa e nos envie!

    00:00 / 00:00
    Outros vídeos desta música
    Repetir Qualidade Automático
    Outros vídeos desta música
    00:00 / 00:00
    Automático

    Cifra Club Pro

    Aproveite o Cifra Club com benefícios exclusivos e sem anúncios
    Cifra Club Pro
    Aproveite o Cifra Club com benefícios exclusivos e sem anúncios
    OK