Cifra Club

Black Star

Carcass

Tab de baixo: Principal
     W                   W                   W                 
D||-------------------|-------------------|-------------------|
A||-------------------|-------------------|-------------------|
E||-------------------|-------------------|-------------------|
B||-------------------|-------------------|--0----------------|


  W                   H.           S E.     E.  Q    S S S S S S S S S  
-------------------|---------------------|-----------------------------|
-------------------|---------------------|-----------------------------|
-------------------|---------------------|-------------7-6-5-----------|
-------------------|--3------------3-6---|--5----------------7-6-0-3-5-|


  H        S S S S S S S S    H        S S S S S S S S  
---------------------------|---------------------------|
---------------------------|---------------------------|
-----------7-6-5-----------|-----------7-6-5-----------|
--0--------------7-6-0-3-5-|--0--------------7-6-0-3-5-|


  Q    E  Q    E  S E.     Q.     S S S S S S S S S S  
------------------------|-----------------------------|
------------------------|-----------------------------|
------------------------|-------------7-6-5-----------|
--3-------3-------3-6---|--5------L---------7-6-0-3-5-|


  H        S S S S S S S S    H        S S S S S S S S  
---------------------------|---------------------------|
---------------------------|---------------------------|
-----------7-6-5-----------|-----------7-6-5-----------|
--0--------------7-6-0-3-5-|--0--------------7-6-0-3-5-|


  Q    E  Q    E  S E.     Q.     S S S S S S S S S S  
------------------------|-----------------------------|
------------------------|-----------------------------|
------------------------|-------------7-6-5-----------|
--3-------3-------3-6---|--5------L---------7-6-0-3-5-|


  Q    S S E  E  E  E  E     Q    S S E  E  S S S S E   
--------------------4-----|----------------------------|
-----------------3-----3--|----------------------------|
--------------4-----------|----------------------------|
--0----0---0--------------|--0----0---0-----0---0-0----|


  Q    S S E  E  E  E  E     Q    S S E  E  S S S S E   
--------------------4-----|----------------------------|
-----------------3-----3--|----------------------------|
--------------4-----------|----------------------------|
--0----0---0--------------|--0----0---0-----0---0-0----|


  Q    S S E  E  E  E  E     Q    S S E  S S S S S S S S  
--------------------8-----|------------------------------|
-----------------7-----7--|------------------------------|
--------------8-----------|--------------7-6-5-----------|
--3----3---3--------------|--3----3---3--------7-6-0-3-5-|


  H        S S S S S S S S    H        S S S S S S S S  
---------------------------|---------------------------|
---------------------------|---------------------------|
-----------7-6-5-----------|-----------7-6-5-----------|
--0--------------7-6-0-3-5-|--0--------------7-6-0-3-5-|


  Q    E  Q    E  S E.     Q.     S S S S S S S S S S  
------------------------|-----------------------------|
------------------------|-----------------------------|
------------------------|-------------7-6-5-----------|
--3-------3-------3-6---|--5------L---------7-6-0-3-5-|


  H        S S S S S S S S    H        S S S S S S S S  
---------------------------|---------------------------|
---------------------------|---------------------------|
-----------7-6-5-----------|-----------7-6-5-----------|
--0--------------7-6-0-3-5-|--0--------------7-6-0-3-5-|


  Q    E  Q    E  S E.     Q.     S S S S S S S S S S  
------------------------|-----------------------------|
------------------------|-----------------------------|
------------------------|-------------7-6-5-----------|
--3-------3-------3-6---|--5------L---------7-6-0-3-5-|


  Q    S S E  E  E  E  E     Q    S S E  E  S S S S E   
--------------------4-----|----------------------------|
-----------------3-----3--|----------------------------|
--------------4-----------|----------------------------|
--0----0---0--------------|--0----0---0-----0---0-0----|


  Q    S S E  E  E  E  E     Q    S S E  E  S S S S E   
--------------------4-----|----------------------------|
-----------------3-----3--|----------------------------|
--------------4-----------|----------------------------|
--0----0---0--------------|--0----0---0-----0---0-0----|


  Q    S S E  E  E  E  E     Q    S S E  S S S S S S S S  
--------------------8-----|------------------------------|
-----------------7-----7--|------------------------------|
--------------8-----------|--------------7-6-5-----------|
--3----3---3--------------|--3----3---3--------7-6-0-3-5-|


  E  S S S  E.  S  S  S S  S  S E     E  S S S  E.  S  S  S S  S  S E   
-----------------------------------|-----------------------------------|
-----------------------------------|-----------------------------------|
---------7S-5----------------------|---------7S-5---0h-2h-5-0h-1p-0----|
--0--0-0--------5h-6h-7-3h-4h-5-3--|--0--0-0------------------------3--|


  E  S S S  E.  S  S  S S  S  S E     E  S S S  E.  S  S  S S  S  S E   
-----------------------------------|-----------------------------------|
-----------------------------------|-----------------------------------|
---------7S-5----------------------|---------7S-5---0h-2h-5-0h-1p-0----|
--0--0-0--------5h-6h-7-3h-4h-5-3--|--0--0-0------------------------3--|


  E  S S S  E.  S  S  S S  S  S E     E  S S S  E.  S  S  S S  S  S E   
-----------------------------------|-----------------------------------|
-----------------------------------|-----------------------------------|
---------7S-5----------------------|---------7S-5---0h-2h-5-0h-1p-0----|
--0--0-0--------5h-6h-7-3h-4h-5-3--|--0--0-0------------------------3--|


  E  S S S  E.  S  S  S S  S  S E     E  S S S  E.  S  S  S S  S  S E   
-----------------------------------|-----------------------------------|
-----------------------------------|-----------------------------------|
---------7S-5----------------------|---------7S-5---0h-2h-5-0h-1p-0----|
--0--0-0--------5h-6h-7-3h-4h-5-3--|--0--0-0------------------------3--|


  S S S S S S S S    H        S S S S S S S S    H        S S S S S S S S  
------------------|---------------------------|---------------------------|
------------------|---------------------------|---------------------------|
--7-6-5-----------|-----------7-6-5-----------|-----------7-6-5-----------|
--------7-6-0-3-5-|--0--------------7-6-0-3-5-|--0--------------7-6-0-3-5-|


  Q    E  Q    E  S E.     Q.     S S S S S S S S S S  
------------------------|-----------------------------|
------------------------|-----------------------------|
------------------------|-------------7-6-5-----------|
--3-------3-------3-6---|--5------L---------7-6-0-3-5-|


  H        S S S S S S S S    H        S S S S S S S S  
---------------------------|---------------------------|
---------------------------|---------------------------|
-----------7-6-5-----------|-----------7-6-5-----------|
--0--------------7-6-0-3-5-|--0--------------7-6-0-3-5-|


  Q    E  Q    E  S E.     Q.     S S S S S S S S S S  
------------------------|-----------------------------|
------------------------|-----------------------------|
------------------------|-------------7-6-5-----------|
--3-------3-------3-6---|--5------L---------7-6-0-3-5-|


  Q    S S E  E  E  E  E     Q    S S E  E  S S S S E   
--------------------4-----|----------------------------|
-----------------3-----3--|----------------------------|
--------------4-----------|----------------------------|
--0----0---0--------------|--0----0---0-----0---0-0----|


  Q    S S E  E  E  E  E     Q    S S E  E  S S S S E   
--------------------4-----|----------------------------|
-----------------3-----3--|----------------------------|
--------------4-----------|----------------------------|
--0----0---0--------------|--0----0---0-----0---0-0----|


  Q    S S E  E  E  E  E     Q    S S E  S S S S S S S S  
--------------------8-----|------------------------------|
-----------------7-----7--|------------------------------|
--------------8-----------|--------------7-6-5-----------|
--3----3---3--------------|--3----3---3--------7-6-0-3-5-|


  E  S S S  E.  S  S  S S  S  S E     E  S S S  E.  S  S  S S  S  S E   
-----------------------------------|-----------------------------------|
-----------------------------------|-----------------------------------|
---------7S-5----------------------|---------7S-5---0h-2h-5-0h-1p-0----|
--0--0-0--------5h-6h-7-3h-4h-5-3--|--0--0-0------------------------3--|


  E  S S S  E.  S  S  S S  S  S E     E  S S S  E.  S  S  S S  S  S E   
-----------------------------------|-----------------------------------|
-----------------------------------|-----------------------------------|
---------7S-5----------------------|---------7S-5---0h-2h-5-0h-1p-0----|
--0--0-0--------5h-6h-7-3h-4h-5-3--|--0--0-0------------------------3--|


  E  S S S  E.  S  S  S S  S  S E     E  S S S  E.  S  S  S S  S  S E   
-----------------------------------|-----------------------------------|
-----------------------------------|-----------------------------------|
---------7S-5----------------------|---------7S-5---0h-2h-5-0h-1p-0----|
--0--0-0--------5h-6h-7-3h-4h-5-3--|--0--0-0------------------------3--|


  E  S S S  E.  S  S  S S  S  S E     E  S S S  E.  S  S  S S  S  S E   
-----------------------------------|-----------------------------------|
-----------------------------------|-----------------------------------|
---------7S-5----------------------|---------7S-5---0h-2h-5-0h-1p-0----|
--0--0-0--------5h-6h-7-3h-4h-5-3--|--0--0-0------------------------3--|


  S  S  S S  S  S E  S S S S S S S S    W                   W                 
-------------------------------------|-------------------|-------------------|
-------------------------------------|-------------------|-------------------|
--0h-2h-5-0h-1p-0----7-6-5-----------|-------------------|-------------------|
------------------3--------7-6-0-3-5-|-------------------|-------------------|


  W                   S S S S S S S S S S S S S S S S  
-------------------|----------------------------------|
-------------------|----------------------------------|
-------------------|----0-0-0-0-3-3-3-3-5-5-5-5-7-7-7-|
-------------------|--3-------------------------------|


  S S S S E  Q    S S S S S S    S S S S E  Q    S S S S S S  
------------------------------|------------------------------|
----------------------5-4-5-4-|----------------------5-4-5-4-|
----------5--7----------------|----------5--7----------------|
--0---0-0---------0-0---------|--0---0-0---------0-0---------|


  S S S S E  Q    S S S S S S    S S S S S S S S S S S S S S S S  
------------------------------|----------------------------------|
----------------------5-4-5-4-|----------------------------------|
----------5--7----------------|----0-0-0-0-3-3-3-3-5-5-5-5-7-7-7-|
--0---0-0---------0-0---------|--3-------------------------------|


  S S S S E  Q    S S S S S S    S S S S E  Q    S S S S S S  
------------------------------|------------------------------|
----------------------5-4-5-4-|----------------------5-4-5-4-|
----------5--7----------------|----------5--7----------------|
--0---0-0---------0-0---------|--0---0-0---------0-0---------|


  S S S S E  Q    S S S S S S    S S S S S S S S S S S S S S S S  
------------------------------|----------------------------------|
----------------------5-4-5-4-|----------------------------------|
----------5--7----------------|----0-0-0-0-3-3-3-3-5-5-5-5-7-7-7-|
--0---0-0---------0-0---------|--3-------------------------------|


  S S S S E  Q    S S S S S S    S S S S E  Q    S S S S S S  
------------------------------|------------------------------|
----------------------5-4-5-4-|----------------------5-4-5-4-|
----------5--7----------------|----------5--7----------------|
--0---0-0---------0-0---------|--0---0-0---------0-0---------|


  S S S S E  Q    S S S S S S    S S S S S S S S S S S S S S S S  
------------------------------|----------------------------------|
----------------------5-4-5-4-|----------------------------------|
----------5--7----------------|----0-0-0-0-3-3-3-3-5-5-5-5-7-7-7-|
--0---0-0---------0-0---------|--3-------------------------------|


  S S S S E  Q    S S S S S S    S S S S E  Q    S S S S S S  
------------------------------|------------------------------|
----------------------5-4-5-4-|----------------------5-4-5-4-|
----------5--7----------------|----------5--7----------------|
--0---0-0---------0-0---------|--0---0-0---------0-0---------|


  S S S S E  Q    S S S S S S    S S S S S S S S S S S S S S S S  
------------------------------|----------------------------------|
----------------------5-4-5-4-|----------------------------------|
----------5--7----------------|----0-0-0-0-3-3-3-3-5-5-5-5-7-7-7-|
--0---0-0---------0-0---------|--3-------------------------------|


  E  S S S  E.  S  S  S S  S  S E     E  S S S  E.  S  S  S S  S  S E   
-----------------------------------|-----------------------------------|
-----------------------------------|-----------------------------------|
---------7S-5----------------------|---------7S-5---0h-2h-5-0h-1p-0----|
--0--0-0--------5h-6h-7-3h-4h-5-3--|--0--0-0------------------------3--|


  E  S S S  E.  S  S  S S  S  S E     E  S S S  E.  S  S  S S  S  S E   
-----------------------------------|-----------------------------------|
-----------------------------------|-----------------------------------|
---------7S-5----------------------|---------7S-5---0h-2h-5-0h-1p-0----|
--0--0-0--------5h-6h-7-3h-4h-5-3--|--0--0-0------------------------3--|


  E  S S S  E.  S  S  S S  S  S E     E  S S S  E.  S  S  S S  S  S E   
-----------------------------------|-----------------------------------|
-----------------------------------|-----------------------------------|
---------7S-5----------------------|---------7S-5---0h-2h-5-0h-1p-0----|
--0--0-0--------5h-6h-7-3h-4h-5-3--|--0--0-0------------------------3--|


  E  S S S  E.  S  S  S S  S  S E     S S S S S S S S S S S S S S S S  
-----------------------------------|----------------------------------|
-----------------------------------|----------------------------------|
---------7S-5----------------------|----0-0-0-0-3-3-3-3-5-5-5-5-7-7-7-|
--0--0-0--------5h-6h-7-3h-4h-5-3--|--3-------------------------------|


  H         Q    Q      
----------------------||
----------------------||
--7s--------0---------||
----------------------||




Duration Legend
---------------
W - whole
H - half
Q - quarter
E - 8th
S - 16th
T - 32nd
X - 64th
. - note dotted
|-n-|  - n-tuplets


Tablature Legend
----------------
L - tied note
x - dead note
g - grace note
(n) - ghost note
> - accentuded note
NH - natural harmonic
AH - artificial harmonic
TH - tapped harmonic
SH - semi harmonic
PH - pitch harmonic
h - hammer on
p - pull off
b - bend
br - bendRelease
pb - preBend
pbr - preBendRelease
brb - bendReleaseBend
\n/ - tremolo bar dip
\n - tremolo bar dive
-/n - tremolo bar Release up
/n\ - tremolo bar inverted dip
/n - tremolo bar return
-\n - tremolo bar Release down
S - shift slide
s - legato slide
/ -  slide into from below or out of upwards
\ -  slide into from above or out of downwards
~ - vibrato
W - wide vibrato
tr - trill
TP - tremolo picking
T - tapping
S - slap
P - pop
< - fade in
^ - brush up
v - brush down
exibições 191
Composição: Carlo Regadas / Jeff Walker Colaboração e revisão:
  • Felipe Oliveira

0 comentários

mostrar mais comentários

Conseguiu tocar?

0 tocaram 0 ainda não

Grave um vídeo tocando Black Star e mande pra gente!

00:00 / 00:00
outros vídeos desta música
repetir qualidade Automático
Outros vídeos desta música
00:00 / 00:00
Automático
OK