Cifra Club

Aprenda

Eu Te Odeio

Carne Doce

Cifra: Principal (violão e guitarra)
tom: Eb (forma dos acordes no tom de Db) Capotraste na 2ª casa
E|-------------------------------------------------|
B|-------------------------------------------------|
G|-------------------------------------------------|
D|---3--3--3--2-3--3--3--2-3--3--3--2-6--4--3------|
A|---4--4--4----4--4--4----4--4--4----8--6--4------|
E|-------------------------------------------------|
                                      Eu te odeio


E|----------------------------------------------------------|
B|----------------------------------------------------------|
G|--6--3---------3-6--3---------3-6--3----------------------|
D|--3----6--3-6----3----6--3-6----3----6--3-6--3------------|
A|--4--------------4--------------4---------------6--4-6-4--|
E|--2--------------2--------------2---------------2--2------|
                                  Nunca mais... me beije aí


E|-------------------------------------------------|
B|-------------------------------------------------|
G|-------------------------------------------------|
D|---3--3--3--2-3--3--3--2-3--3--3--2-6--4--3------|
A|---4--4--4----4--4--4----4--4--4----8--6--4------|
E|-------------------------------------------------|
                       que eu morro...      de rir


E|----------------------------------------------------------|
B|----------------------------------------------------------|
G|--6--3---------3-6--3---------3-6--3----------------------|
D|--3----6--3-6----3----6--3-6----3----6--3-6--3------------|
A|--4--------------4--------------4---------------6--4-6-4--|
E|--2--------------2--------------2---------------2--2------|

E|-------------4-----4--4-----4---------|
B|----------6--7--7-----7--7-----6--4---|
G|--------6----6--------6--------5--5---|
D|------6-------------------------------|
A|---4---------2--------6--------6--6---|
E|--------------------------------------|
                                     Que me dá um negócio


E|-------------4-----4--4-----4---------|
B|----------6--7--7-----7--7-----6--4---|
G|--------6----6--------6--------5--5---|
D|------6-------------------------------|
A|---4---------2--------6--------6--6---|
E|--------------------------------------|
                                     que eu vou ter um troço


E|-------------4-----4--4-----4---------|
B|----------6--7--7-----7--7-----6--4---|
G|--------6----6--------6--------5--5---|
D|------6-------------------------------|
A|---4---------2--------6--------6--6---|
E|--------------------------------------|
                                     e a gente


E|-------------4--4-----------4--6---|
B|----------6--7--7--7--6--7---------|
G|--------6----6--6-----5------------|
D|------6----------------------------|
A|---4---------2--2-----6------------|
E|-----------------------------------|
     vai ter que terminar


E|---------------------------------------|
B|---------------------------------------|
G|---6--------5-------3------------------|
D|------3--------3-------3-----6--6--4---|
A|---------4--------4-------4------------|
E|---2--------2-------2--------2--2------|
                      Vai...        me foto-


E|-------------------------------------------------|
B|-------------------------------------------------|
G|-------------------------------------------------|
D|---3--3--3--2-3--3--3--2-3--3--3--2-6--4--3------|
A|---4--4--4----4--4--4----4--4--4----8--6--4------|
E|-------------------------------------------------|
     grafa


E|----------------------------------------------------------|
B|----------------------------------------------------------|
G|--6--3---------3-6--3---------3-6--3----------------------|
D|--3----6--3-6----3----6--3-6----3----6--3-6--3------------|
A|--4--------------4--------------4---------------6--4-6-4--|
E|--2--------------2--------------2---------------2--2------|
                                  diz...              você me acha bonita?


E|-------------------------------------------------|
B|-------------------------------------------------|
G|-------------------------------------------------|
D|---3--3--3--2-3--3--3--2-3--3--3--2-6--4--3------|
A|---4--4--4----4--4--4----4--4--4----8--6--4------|
E|-------------------------------------------------|

E|----------------------------------------------------------|
B|----------------------------------------------------------|
G|--6--3---------3-6--3---------3-6--3----------------------|
D|--3----6--3-6----3----6--3-6----3----6--3-6--3------------|
A|--4--------------4--------------4---------------6--4-6-4--|
E|--2--------------2--------------2---------------2--2------|
                 Eu tenho tanto medo... 


E|-------------------------------------------------|
B|-------------------------------------------------|
G|-------------------------------------------------|
D|---3--3--3--2-3--3--3--2-3--3--3--2-6--4--3------|
A|---4--4--4----4--4--4----4--4--4----8--6--4------|
E|-------------------------------------------------|
           de esquecer o seu cheiro


E|----------------------------------------------------------|
B|----------------------------------------------------------|
G|--6--3---------3-6--3---------3-6--3----------------------|
D|--3----6--3-6----3----6--3-6----3----6--3-6--3------------|
A|--4--------------4--------------4---------------6--4--6---|
E|--2--------------2--------------2---------------2--2------|

E|-------------4-----4--4-----4---------|
B|----------6--7--7-----7--7-----6--4---|
G|--------6----6--------6--------5--5---|
D|------6-------------------------------|
A|---4---------2--------6--------6--6---|
E|--------------------------------------|
                                     De que você bata o carro


E|-------------4-----4--4-----4---------|
B|----------6--7--7-----7--7-----6--4---|
G|--------6----6--------6--------5--5---|
D|------6-------------------------------|
A|---4---------2--------6--------6--6---|
E|--------------------------------------|
                                     De que você se divirta muito muito... es-


E|------------4-----4--4-----4--------------------------------4--|
B|---------6--7--7-----7--7-----6------6--4------4--4------4-----|
G|-------6----6--------6--------5----5----6----6----6----6-------|
D|-----6---------------------------------------------------------|
A|--4---------2--------6--------6--6------4--4------4--4---------|
E|---------------------------------------------------------------|
    cancarado...    quando me trair


E|------9--12-11--9-----8-9--11-----9--7----------|
B|--11---------------9-----------9-------9--7--6--|
G|--10---------------8-----------8----------6--5| -|
D|--11--------------10-----------9----------8--6--|
A|---9---------------8-----------7----------6--4--|
E|------------------------------------------------|
                                                 Vamo num restaurante caro


E|-----11--13--6--9--6----------------------------|
B|--11-11--11--7-------9--7-----11--------6--7-6--|
G|--11---------6------------10------11-8--6-------|
D|--11---------8------------10------------6-------|
A|---9---------6-------------8------------4-------|
E|------------------------------------------------|

E|------9--12-11--9-----8-9--11-----9--7----------|
B|--11---------------9-----------9-------9--7--6--|
G|--10---------------8-----------8----------6--5| -|
D|--11--------------10-----------9----------8--6--|
A|---9---------------8-----------7----------6--4--|
E|------------------------------------------------|
                                                 Vamo prum boteco


E|-----11--13--6--9--6----------------------------|
B|--11-11--11--7-------9--7-----11--------6--7-6--|
G|--11---------6------------10------11-8--6-------|
D|--11---------8------------10------------6-------|
A|---9---------6-------------8------------4-------|
E|------------------------------------------------|
                      vamo por aí


E|------9--12-11--9-----8-9--11-----9--7----------|
B|--11---------------9-----------9-------9--7--6--|
G|--10---------------8-----------8----------6--5| -|
D|--11--------------10-----------9----------8--6--|
A|---9---------------8-----------7----------6--4--|
E|------------------------------------------------|
                                                 jurar pra sempre


E|-----11--13--6--9--6----------------------------|
B|--11-11--11--7-------9--7-----11--------6--7-6--|
G|--11---------6------------10------11-8--6-------|
D|--11---------8------------10------------6-------|
A|---9---------6-------------8------------4-------|
E|------------------------------------------------|

E|------9--12-11--9-----8-9--11-----9--7----------|
B|--11---------------9-----------9-------9--7--6--|
G|--10---------------8-----------8----------6--5| -|
D|--11--------------10-----------9----------8--6--|
A|---9---------------8-----------7----------6--4--|
E|------------------------------------------------|
                                                 jurar...


E|-----11--13--6--9--6----------------------------|
B|--11-11--11--7-------9--7-----11--------6--7-6--|
G|--11---------6------------10------11-8--6-------|
D|--11---------8------------10------------6-------|
A|---9---------6-------------8------------4-------|
E|------------------------------------------------|
             pra sempre


E|------9--12-11--9-----8-9--11-----9--7----------|
B|--11---------------9-----------9-------9--7--6--|
G|--10---------------8-----------8----------6--5| -|
D|--11--------------10-----------9----------8--6--|
A|---9---------------8-----------7----------6--4--|
E|------------------------------------------------|

E|------11--13--6------------|
B|---11-11--11--7--9--7--6---|
G|---11---------6--------6---|
D|---11---------8--------6---|
A|----9---------6--------4---|
E|---------------------------|

E|-------------------------------------------------|
B|-------------------------------------------------|
G|-------------------------------------------------|
D|---3--3--3--2-3--3--3--2-3--3--3--2-6--4--3------|
A|---4--4--4----4--4--4----4--4--4----8--6--4------|
E|-------------------------------------------------|

E|------------------------------------------|
B|------------------------------------------|
G|---6--------5-------3---------------------|
D|------3--------3-------3-----6--6--4--3---|
A|---------4--------4-------4-----------4---|
E|---2--------2-------2--------2--2-----2---|


Composição de Macloys Aquino / Salma Jô
Colaboração e revisão:
  • Gabriel Franchini
  • Lucas Millecco
4.967 exibições
    • ½ Tom
    • A
    • Bb
    • B
    • C
    • Db
    • D
    • Eb
    • E
    • F
    • F#
    • G
    • Ab
  • Adicionar à lista

    0 comentários

    Ver todos os comentários

    Conseguiu tocar?

    2 Tocaram 3 Ainda não

    Grave um vídeo tocando Eu Te Odeio e nos envie!

    00:00 / 00:00
    outros vídeos desta música
    repetir qualidade Automático
    Outros vídeos desta música
    00:00 / 00:00
    Automático

    Cifra Club Pro

    Aproveite o Cifra Club com benefícios exclusivos e sem anúncios
    Cifra Club Pro
    Aproveite o Cifra Club com benefícios exclusivos e sem anúncios
    OK