Cifra Club

Minstrels Prayer

Cartel

Cifra: Principal (violão e guitarra)
tom: Ab (forma dos acordes no tom de G) Capotraste na 1ª casa
standard tuning, capo first fret... i kno this tab isn't a hundred percent but it's better than nothing...

------------------------|
-1-------------1--------|
---0-------------0------| repeat this throught the intro/ verse
-----2-2-----------0-0--|
------------------------|
------------------------|

chorus
--------|
-3---1--|
-0---0--| just play around with these during the chorus... 
-2---2--| then go back to verse... i'm not too sure about this tho =/
-3---3--|
--------|

interlude-
--------0---------------------------------------0--|
--1-----1------1-------------1---/(3)-3---/(5)-5---|
----0------------0-------------0--------0----------|
------2------------2-------------------------------|
3------------3-------3-----3-----/(5)-----/(7)-----|
---------------------------------------------------|

outro-
----------------------0------------------------0--|
---1------------1-----1-------1---/(3)-3---/(5)---|
-----0------------0-------------0--------0--------|
-------2------------2-----------------------------|
-3-------3----3-------------3-----/(5)-----/(7)---|
--------------------------------------------------|

---------------------------------|
---------------------------------|
---------------------------------|
---------------------------------|
-5-5-5---------------------------|
-------3-3-3-3-3-3-3-3-3-3-3-3-3-|
PM______________________________
00:00 / 00:00
Outros vídeos desta música
Repetir
Outros vídeos desta música
Composição de Cartel / Will Pugh
616 exibições
    • ½ Tom
    • A
    • Bb
    • B
    • C
    • Db
    • D
    • Eb
    • E
    • F
    • F#
    • G
    • Ab
  • Adicionar à lista

    0 comentários

    Ver todos os comentários

    Entre para oCifra Club PRO

    Tenha acesso a benefícios exclusivos no App e no Site

    • Chega de anúncios

    • Prioridade de compra em lançamentos

    • Mais recursos no app do Afinador

    • Atendimento Prioritário

    • Descontos nos produtos Cifra Club

    • Ajude a produzir mais conteúdo

    00:00 / 00:00

    Cifra Club Pro

    Aproveite o Cifra Club com benefícios exclusivos e sem anúncios
    Cifra Club Pro
    Aproveite o Cifra Club com benefícios exclusivos e sem anúncios
    OK