Cifra Club

Ilha

Casaca

Cifra: Principal (violão e guitarra)
tom: A
Intro: A  C#m  A  C#m  A  C#m  A  C#m
E|-----------------------------------------------|
B|----10-9-7----------7-9-7-9-7------------------|
G|-----------9-----9-------------9------------9--|
D|-------------11--------------------11-9-11-----|
A|-----------------------------------------------|
E|-----------------------------------------------|
                                                           (2x)
E|---------------------------------------------|
B|----10-9-7----------7-9-7-9-7----------------|
G|-----------9-----9-------------9-------------|
D|-------------11--------------------11-9-11---|
A|---------------------------------------------|
E|---------------------------------------------|

Parte 1:
A              C#m                   A
Sair de manhã cedo enfentar o vento sul
A          C#m                     F#m
no mar de águas claras, lá da Barra do Jucu
                    C#m                    D
com meu barquinho simples levo a imaginação
      E               F#m
Seu retrato na vela do coração

Refrão:
     E              D
que não para de sonhar
           E         F#m
no vai e vem das ondas
           E         D
que não para de sonhar
            E
no vai e vem das ondas

Parte 2:
A                    C#m        D       E
estou pensando em você/ oh minha ilha/ oh minha pequena
A                    C#m        D       E
estou pensando em você/ oh minha ilha/ oh minha pequena
C                    Em         F       G
estou pensando em você/ oh minha ilha/ oh minha pequena
C                    Em         F       G
estou pensando em você/ oh minha ilha/ oh minha pequena

Solo: D#  G#m  G#  A#

Vai assim!!

(Parte 1)

(Refrão)

(Parte 1)

(Refrão)

(Parte 2)
00:00 / 00:00
Outros vídeos desta música
Repetir
Outros vídeos desta música
Composição de Piríquito / Renato
Colaboração e revisão:
  • Gustavo Dias
  • Sadallo Neto
  • Anderson Pereira
10.020 exibições
    • ½ Tom
    • A
    • Bb
    • B
    • C
    • Db
    • D
    • Eb
    • E
    • F
    • F#
    • G
    • Ab
  • Adicionar à lista

    0 comentários

    Ver todos os comentários

    Conseguiu tocar?

    1 Tocaram 0 Ainda não

    Grave um vídeo tocando Ilha e nos envie!

    Entre para oCifra Club PRO

    Tenha acesso a benefícios exclusivos no App e no Site

    • Chega de anúncios

    • Prioridade de compra em lançamentos

    • Mais recursos no app do Afinador

    • Atendimento Prioritário

    • Descontos nos produtos Cifra Club

    • Ajude a produzir mais conteúdo

    00:00 / 00:00

    Cifra Club Pro

    Aproveite o Cifra Club com benefícios exclusivos e sem anúncios
    Cifra Club Pro
    Aproveite o Cifra Club com benefícios exclusivos e sem anúncios
    OK