Cifra Club

Mini-saia sem calcinha

Os Cascavelletes

Cifra: Principal (violão e guitarra)
Selo Cifra Club: esta cifra foi revisada para atender aos critérios oficiais da nossa Equipe de Qualidade.
tom: B
Introdução:  B

    E        A           B      :
Ela usa mini-saia sem calcinha  :         
    E        A           B      :      
Ela usa mini-saia sem calcinha  : -----------> Refrão 2X
    E        A           B      :      
Ela usa mini-saia sem calcinha  :               
    E      B                    :   
Safadinha, que                  :
  E                             :
tesão                                                                     
                             
  C#m           E
Debaixo daquela saia
 A              C#m    
Existe uma bela praia
    F#          
Que deixa meu corpo bronzeado 
  B                     B
E todo excitado


Refrão

  C#m             E
Debaixo daquela sainha
 A               C#m 
Existe uma fogueirinha
    F#                           
Que deixa vermelha e inchada
  B                     B
A minha salsichinha 

Solo:
e|------11/12--12--11/12--12--11/12--12--12--12--12-|-> 3x
b|------11/12--12--11/12--12--11/12--12--12--12--12-|

e|-12---------------------------------------------------------------
b|-12-----------------------------------------------------------------
g|--------14---12----------12---14--14^----14-----12-----------
d|---------------------14--------------------------------------14----
a|--------------------------------------------------------------------
e|-------------------------------------------------------------------

e|------11/12--12--11/12--12--11/12--12--12--12--12-|-> 3x
b|------11/12--12--11/12--12--11/12--12--12--12--12-|

e|-12--12--15--15--12-----------|
b|-12--12--15--15--12-----------|

  C#m           E
Debaixo daquela saia
 A              C#m
Existe uma bela praia
    F#
Que deixa toda empinada
  B                      B
A minha samambaia



    E        A           B  
Ela usa mini-saia sem calcinha         
    E        A           B         
Ela usa mini-saia sem calcinha 
    E        A           B         
Ela usa mini-saia sem calcinha 
    E      B     E                     
Safadinha, que tesão                   
B     E
Que tesão    
B          
Que 
  C#
tesãããããoooo
        E 
E como é boooom
00:00 / 00:00
Outros vídeos desta música
Repetir
Outros vídeos desta música
30.043 exibições
    • ½ Tom
    • A
    • Bb
    • B
    • C
    • Db
    • D
    • Eb
    • E
    • F
    • F#
    • G
    • Ab
  • Adicionar à lista

Afinação da cifra

Afinador online

    0 comentários

    Ver todos os comentários

    Entre para oCifra Club PRO

    Tenha acesso a benefícios exclusivos no App e no Site

    • Chega de anúncios

    • Prioridade de compra em lançamentos

    • Mais recursos no app do Afinador

    • Atendimento Prioritário

    • Descontos nos produtos Cifra Club

    • Ajude a produzir mais conteúdo

    00:00 / 00:00

    Cifra Club Pro

    Aproveite o Cifra Club com benefícios exclusivos e sem anúncios
    Cifra Club Pro
    Aproveite o Cifra Club com benefícios exclusivos e sem anúncios
    OK