Cifra Club

E.C.T.

Cássia Eller

Cifra: Principal (violão e guitarra)
tom: D
[Intro] D7(9)  C7(9)  D7(9)  C7(9)

     D7(9)
E|------------------------------------------|
B|---------7--------------------------------|
G|-------7---7-9-9p7-5----------------------|
D|-x---6---------------x-x------------------|
A|-x-7-----------------x--------------------|
E|-x-------------------x--------------------|

E|------------------------------------------|
B|-------7-----x-x-x-x----------------------|
G|-----7---7-9-x-x-x-x----------------------|
D|---6---------x-x-x-x----------------------|
A|-7-----------x-x-x-x----------------------|
E|------------------------------------------|

     C7(9)
E|------------------------------------------|
B|---------5--------------------------------|
G|-------5---5-7-7p5-3----------------------|
D|-x---4---------------x-x------------------|
A|-x-5-----------------x--------------------|
E|-x-------------------x--------------------|

E|------------------------------------------|
B|-------5-----x-x-x-x----------------------|
G|-----5---5-7-x-x-x-x----------------------|
D|---4---------x-x-x-x----------------------|
A|-5-----------x-x-x-x----------------------|
E|------------------------------------------|

     D7(9)
E|----------------------10-10---------------|
B|---------7------------x--x----------------|
G|-------7---7-9-9p7-5--x--x----------------|
D|-x---6------------------------------------|
A|-x-7--------------------------------------|
E|-x----------------------------------------|

E|--------------10-10-10-10-----------------|
B|-------7------x--x--x--x------------------|
G|-----7---7-9--x--x--x--x------------------|
D|---6--------------------------------------|
A|-7----------------------------------------|
E|------------------------------------------|

     C7(9)
E|------------------------------------------|
B|---------5--------------------------------|
G|-------5---5-7-7p5-3----------------------|
D|-x---4---------------x-x------------------|
A|-x-5-----------------x--------------------|
E|-x-------------------x--------------------|

E|------------------------------------------|
B|-------5-----x-x-x-x----------------------|
G|-----5---5-7-x-x-x-x----------------------|
D|---4---------x-x-x-x----------------------|
A|-5-----------x-x-x-x----------------------|
E|------------------------------------------|

[Primeira Parte]

            D7                  C7
Tava com o cara que carimba postais
                                         D7
Que por descuido abriu uma carta que voltou
                                C7
Levou um susto que lhe abriu a boca
                                     D7
Esse recado vem pra mim, não pro senhor
                                 D#7
Recebo crack, colante, dinheiro parco, embrulhado
             D7                    D#7
Em papel carbono e barbante até cabelo cortado
         D7              D#7
Retrato de 3x4 pra bati-zado distante
            C7                    D7
Mas isso aqui, meu senhor, é uma carta de amor

[Refrão]

        D7              Cm7
Levo o mundo e não vou lá
        D7              Cm7
Levo o mundo e não vou lá
        D7              Cm7
Levo o mundo e não vou lá
        D7             Cm7
Levo o mundo e não vou

[Segunda Parte]

          D7                C7
Mas este cara tem a língua solta
                       D7
A minha carta ele musicou
                           C7
Tava em casa, a vitamina pronta
                                 D7
Ouvi no rádio a minha carta de amor
                                       
Dizendo: "eu caso contente
          D#7                      D7
Papel passado e presente desembrulhado
                   D#7
Vestido, eu volto logo me espera
            D7                    D#7
Não brigue nunca comigo eu quero ver nossos filhos
         C7                         D7
O professor me ensinou a fazer uma carta de amor

[Refrão]

        D7               Cm7
Leve o mundo que eu vou já
        D7               Cm7
Leve o mundo que eu vou já
        D7               Cm7
Leve o mundo que eu vou já
        D7            Cm7  D7  D#7
Leve o mundo que eu vou

( D7  C7 )

[Segunda Parte]

                            D7
Mas este cara tem a língua solta
         C7            D7
A minha carta ele musicou
                           C7
Tava em casa, a vitamina pronta
                                    D7
Ouvi no rádio a minha carta sim senhor
                                       
Dizendo: "eu caso contente
          D#7                      D7
Papel passado e presente desembrulhado
                   D#7
Vestido, eu volto logo me espera
            D7                    D#7
Não brigue nunca comigo eu quero ver nossos filhos
         C7                         D7
O professor me ensinou a fazer uma carta de amor

[Refrão]

        D7               Cm7
Leve o mundo que eu vou já
        D7               Cm7
Leve o mundo que eu vou já
        D7               Cm7
Leve o mundo que eu vou já
        D7              Cm7
Leve o mundo que eu vou

[Final] D7  C7  D7  C7
        D7  C7  D7  C7
00:00 / 00:00
Outros vídeos desta música
Repetir
Outros vídeos desta música
Composição de Carlinhos Brown / Marisa Monte / Nando Reis
470.468 exibições
    • ½ Tom
    • A
    • Bb
    • B
    • C
    • Db
    • D
    • Eb
    • E
    • F
    • F#
    • G
    • Ab
  • Adicionar à lista

    0 comentários

    Ver todos os comentários

    Conseguiu tocar?

    31 Tocaram 7 Ainda não

    Grave um vídeo tocando E.C.T. e nos envie!

    00:00 / 00:00

    Cifra Club Pro

    Aproveite o Cifra Club com benefícios exclusivos e sem anúncios
    Cifra Club Pro
    Aproveite o Cifra Club com benefícios exclusivos e sem anúncios
    OK