Cifra Club

500 Graus

Cassiane

Cifra: Principal (violão e guitarra)
Selo Cifra Club: esta cifra foi revisada para atender aos critérios oficiais da nossa Equipe de Qualidade.
tom: Fm (forma dos acordes no tom de Em) Capotraste na 1ª casa
[Intro] C#m  F#m/C#  C#m  F#m/C#  C#m
        Em  G#°  Em  G#°  Em

[Primeira Parte] 

Em                  
   Uma chuva diferente
                  D
Agora está se formando no céu
                        Em   
Temporal de benção e poder
                                     D
Um calor tão glorioso invade toda igreja
                                         Em
Quinhentos graus de puro fogo santo e poder

[Segunda Parte] 

                               C   
Pra fazer enfermidade desaparecer
                                D
Pra fazer o inimigo fugir de você

Uma nuvem de vitória está sobre a igreja
                                   Em
A previsão de Deus diz que vai chover
                                           C
Vai chover línguas estranhas por todos os lados
                                D
E desse temporal quero sair molhado
                                   
Molhado e revestido por esse poder
                         Em
Agora o impossível vai acontecer

[Pré-Refrão] 

        C
É a promessa de Deus
        D                      Em
O fogo vai descer, por esse poder
        C
É a promessa de Deus 
        D                      Em  
O fogo vai descer, por esse poder  

[Refrão] 
            
                 D
Já começa acontecer

Debaixo dessa chuva posso contemplar
            Em
Aleluia daqui, Glória e aleluia de lá
                C                     D
Inundando os irmãos com a benção nas mãos
                 Em                C  D     Em
Vejo milhares de anjos vindo num imenso trovão

                  D
Desse lado tem poder, desse lado tem vitória
                      Em
Aqui na frente tem irmãos 

Sendo batizados, dando glória
                    C   
Ali no meio o fogo cai
                                D
Toda enfermidade não resiste e sai
                      Em  C  D  Em
Pelo Santo nome de Jesus

[Primeira Parte] 

Em                     
   Uma chuva diferente 
                D
Agora está inundando esta igreja
                        Em
Temporal de benção e poder
                      
Um calor tão glorioso 
                    D
Está queimando o pecado 
                               
Destruindo tudo que aflige você 
                                         Em
Quinhentos graus de puro fogo santo e poder

[Segunda Parte] 

                              C  
E já fez enfermidade desaparecer
                               D
E já fez o inimigo fugir de você

Uma nuvem de vitória continua na igreja
                                     Em
A previsão nos diz que ainda vai chover

                                           C
Vai chover línguas estranhas por todos os lados
                                D
E desse temporal quero sair molhado
                                   
Molhado e revestido por esse poder
                         Em
Agora o impossível vai acontecer

[Pré-Refrão] 

        C
É a promessa de Deus
        D                      Em
O fogo vai descer, por esse poder
        C
É a promessa de Deus 
        D                      Em    
O fogo vai descer, por esse poder

[Solo] C  B7  Em  C  B7  Em
       D  C  B7  Em

[Tab - Solo]

E|------------------------------------------|
B|-8-7-8-7-10-7--9-9-9-9-9-9~---------------|
G|------------------------------------------|
D|------------------------------------------|
A|------------------------------------------|
E|------------------------------------------|

E|------------------------------------------|
B|-8-8-8-8-7~-------------------------------|
G|------------9-8-8h9-----------------------|
D|------------------------------------------|
A|------------------------------------------|
E|------------------------------------------|

E|------------------------------------------|
B|------------------------------------------|
G|------------8-9---------------------------|
D|--------7-9-----9~------------------------|
A|-5/7-10-----------------------------------|
E|------------------------------------------|

E|------------------------------------------|
B|------------------------------------------|
G|-4h5p4---4h5p4---4h5p4--------------------|
D|-------7-------7-------7-5~---------------|
A|------------------------------------------|
E|------------------------------------------|

E|------------------------------------------|
B|------------------------------------------|
G|-----------7-6-6/7~-----------------------|
D|-7-5-5h7-5--------------------------------|
A|------------------------------------------|
E|------------------------------------------|

E|------------------------------------------|
B|-10-8-7---10~---7-8-10-8-7---8~-----------|
G|--------9------------------9--------------|
D|------------------------------------------|
A|------------------------------------------|
E|------------------------------------------|

E|------------------------------------------|
B|-7-8-10-8-7---7~---8-7--------------------|
G|------------9----------9-7-9--------------|
D|------------------------------------------|
A|------------------------------------------|
E|------------------------------------------|
       
[Refrão] 
            
                 D
Já começa acontecer

Debaixo dessa chuva posso contemplar
            Em
Aleluia daqui, Glória e aleluia de lá
                C                     D
Inundando os irmãos com a benção nas mãos
                 Em                C  D     Em
Vejo milhares de anjos vindo num imenso trovão

                  D
Desse lado tem poder, desse lado tem vitória
                      Em
Aqui na frente tem irmãos 

Sendo batizados, dando glória
                    C   
Ali no meio o fogo cai
                                D
Toda enfermidade não resiste e sai
                      Em  
Pelo Santo nome de Jesus

                    C   
Ali no meio o fogo cai
                                D
Toda enfermidade não resiste e sai
                      Em  
Pelo Santo nome de Jesus
                                         Em
Quinhentos graus de puro fogo santo e poder
00:00 / 00:00
Outros vídeos desta música
Repetir
Outros vídeos desta música
869.756 exibições
  • Simplificar cifra
    • ½ Tom
    • Am
    • Bbm
    • Bm
    • Cm
    • C#m
    • Dm
    • Ebm
    • Em
    • Fm
    • F#m
    • Gm
    • G#m
  • Adicionar à lista

Afinação da cifra

Afinador online

    0 comentários

    Ver todos os comentários

    Entre para o Cifra Club PRO

    Tenha acesso a benefícios exclusivos no App e no Site

    • Chega de anúncios

    • Mais recursos no app do Afinador

    • Atendimento Prioritário

    • Aumente seu limite de lista

    • Ajude a produzir mais conteúdo

    00:00 / 00:00

    Cifra Club Pro

    Aproveite o Cifra Club com benefícios exclusivos e sem anúncios
    Cifra Club Pro
    Aproveite o Cifra Club com benefícios exclusivos e sem anúncios
    OK