Cifra Club

Sementes da Fé

Cassiane

Cifra: Principal
exibições 80.181
Tom: F
[Intro]  Dm  Am  Bb9  Dm

[Solo]

E|-----8--------8--8-8-6----6/8-8-6----------------------8-|
B|-5-6----6-5------------6----------6-8--------------------|
G|------------7-------------------------7-7/9-9/10--9/10---|
D|---------------------------------------------------------|
A|---------------------------------------------------------|
E|---------------------------------------------------------|

               Gm              C9
Nos braços do Pai eu vou repousar
               F9        C/E       Dm
E crer nas promessas de Deus para mim
          Gm              C9              Dm
E com oração eu irei plantar sementes da fé
         Bb9               C9
E o meu louvor será como adubo
                  F9      C/E       Dm
Fará com que os frutos comecem crescer
             Gm                   C9              Dm
E as minhas lágrimas serão pra regar sementes da fé

       Gm       C9         F9       C/E       Dm
Se tentaram apagar tudo aquilo que Deus prometeu
     Gm          C9          Dm
E feridas se formaram sobre ti
           Bb9                 C9
Saiba que Deus de ti não esqueceu
      F9      C/E   Dm
Ele atende o teu pedido
          Gm            C9            Dm
Você plantou e um novo tempo à ti chegou
          Gm            C9            Dm
Você plantou e um novo tempo à ti chegou

 Gm                C9
Pode adorar e exaltar ao Rei dos reis
        F9        C/E     Dm
Porque hoje Ele traz à você
  Gm                    C9              Dm
Traz a cura, traz avivamento, traz solução
 Gm                   C9           F9  C/E      Dm
Tudo que pediu e esperou, receba agora em tuas mãos
         Gm                   C9          Dm
Pode colher que os frutos da fé agora brotaram
         Gm                   C9          Dm
Pode colher que os frutos da fé agora brotaram

[Solo]  Fm/Ab  Eb/G  Db/F  C7/E

E|-8-8-6---------------------------------8-----------------|
B|-------9--8-8----------9-9------8--5/8-------------------|
G|--------------8-8--6-6------6-5--------------------------|
D|---------------------------------------------------------|
A|---------------------------------------------------------|
E|---------------------------------------------------------|

(  Gm  C9  F9  C/E  Dm  Gm  C9  Dm  Gm  C9  Dm  )
Acordes para:

    0 comentários

      mostrar mais comentários

      Conseguiu tocar?

      14tocaram0ainda não

      Grave um vídeo tocando Sementes da Fé e mande pra gente!

      00:00 / 00:00
      outros vídeos desta música
      repetirqualidadeautomática
      Outro vídeos desta música
        00:00 / 00:00
        automática
        OK