Cifra Club

Aprenda

Que Som É Esse?

Castelo Rá-Tim-Bum

Cifra: Principal (violão e guitarra)
tom: F
Intro:
E|----------------------17\5--------------------------------------------------------------------
B|---8-10----8-10/12-10-----------------7-8-10-7-----8------------7--------7-----8-----9-----10-
G|-9-------9----------------------6-7-9----------9-7---9------6-9----9--------------------------
D|----------------------------7-9------------------------9--7----------7-7---7-7---7-7---7-7----
A|----------------------------------------------------------------------------------------------
E|----------------------------------------------------------------------------------------------

           F
Passarinho
          Bb  C
Que som é esse?
           F  G
Passarinho

           G                                                     C  G
E|---------------------------------------------------------12----
B|-----0-1-3-1-0----------12-13-15-13-12--------3-5-3---15----15-
G|-0-2-----------2--12-14----------------14----------------------
D|---------------------------------------------------------------
A|---------------------------------------------------------------
E|---------------------------------------------------------------

( G   C   G )

 A                    D
Dan dan dan, dan dan dan
 A                    D
Dan dan dan, dan dan dan
    A               D
Que som? Que som é esse?
A                 D
Quem sabe o nome dele?
F                  G# A#  F
Esse som é o som piano-ooooh
  G#  A#
Piano-ooooh
F                    G#   A#
Esse som é o som do piano-oooh
                 F
Piano é assim, plim

E|----10----------
B|-13----13-10----
G|-------------10-
D|----------------
A|----------------
E|----------------
Composição de Hélio Ziskind
Colaboração e revisão:
  • Henrique Elias
15.465 exibições
    • ½ Tom
    • A
    • Bb
    • B
    • C
    • Db
    • D
    • Eb
    • E
    • F
    • F#
    • G
    • Ab
  • Adicionar à lista

    0 comentários

    Ver todos os comentários

    Conseguiu tocar?

    4 Tocaram 0 Ainda não

    Grave um vídeo tocando Que Som É Esse? e nos envie!

    00:00 / 00:00
    outros vídeos desta música
    repetir qualidade Automático
    Outros vídeos desta música
    00:00 / 00:00
    Automático

    Cifra Club Pro

    Aproveite o Cifra Club com benefícios exclusivos e sem anúncios
    Cifra Club Pro
    Aproveite o Cifra Club com benefícios exclusivos e sem anúncios
    OK