Cifra Club

Father and Son

Cat Stevens

Cifra: Principal (violão e guitarra)
tom: G
[Intro]

      G  G/C G G/C
E|3--3-3-3-0------3-----5----|
B|0--0-0-0-1-1-------1-------|
G|0--0-0-0-0-----------------|
D|0--0-0-0-2-----------------|
A|2--2-2-2-3-----------------|
E|3--3-3-3-0-----------------|

       G                D/F#                C        Am7
It's not time to make a change, just relax, take it easy
             G                   Em
you're still young, that's your fault,
           Am               D/F#
there's so much you have to know
      G               D/F#           C           Am7
Find a girl, settle down, if you want, you can marry
      G      Em       Am        D/F#
Look at me, I am old, but I'm happy
    G                   D/F#             C                Am7
I was once like you are now, and I know that's it's not easy
     G                Em            Am         D/F#
to be calm when you've found something going on
            G             D/F#
But take your time, think a lot,
        C                 Am7
think of everything you've got
            G             Em
for you will still be here tomorrow,
        D/F#       G    G/C G G/C
but your dreams may not

       G          Bm
How can I try to explain,
      C            Am7
when I do he turns away again
    G              Em               Am      D/F#
It's always been the same, same old story.
        G              Bm            C            Am7
From the moment I could talk, I was ordered to listen
            G        Em               D        G
now there's a way and I know that I have to go away.
  D     C      G    G/C  G  G/C
I know I have to go 

E|3--3-3-3-3---3--3/5---------|
B|0--0-0-0/1--1--1------------|
G|0--0-0-0--------------------|
D|0--0-0-0--------------------|
A|2--2-2-2--------------------|
E|3--3-3-3--------------------|
 
[Solo] G D/F# C Am7 G Em Am D/F#
            G D/F# C Am7 G Em D C D C G 
            G G/C 

E|-------| ----12--------|--------------12----------|---------------------|
B|-12-13-| -15----15--12-|-15-15--15-15-------------|-12-------12---13-12-|
G|-------| --------------|----------------12--12h14-|----12h14------------|
D|-------| --------------|--------------------------|---------------------|
A|-------| --------------|--------------------------|---------------------|
E|-------| --------------|--------------------------|---------------------|

E|--------------------------------------| --------------------|-------0--------|
B|---------------------------------0--1-| -3---0--1--3---0--1-|-3-3-3----------|
G|-14--12----12---11h12p11--------------| --------------------|---------0--0-2-|
D|--------14----------------14-12-------| --------------------|----------------|
A|--------------------------------------| --------------------|----------------|
E|--------------------------------------| --------------------|----------------|

E|-----------------| --------------------|--------------------3---3--3--3-|
B|-------------1---| ------------------0-|-3--3--1--1-p-0-----3---3--3--3-|
G|--4---0-2-4----4-| -4--2--0-----0------|--------------------0---0--0--0-|
D|-----------------| -----------0--------|--------------------0---0--0--0-|
A|-----------------| --------------------|--------------------2---2--2--2-|
E|-----------------| --------------------|--------------------3---3--3--3-|

E|-----------3---5----3--3--3--3-| -----------3---5------------------------|
B|-1------------------3--3--3--3-| -1--------------------------------------|
G|-0---4-/-5---5------0--0--0--0-| -0---4-/-5---5--------------------------|
D|-2------------------0--0--0--0-| -2--------------------------------------|
A|-3------------------2--2--2--2-| -3--------------------------------------|
E|--------------------3--3--3--3-| ----------------------------------------|

        G               D/F#                C          Am7
It's not time to make a change, just sit down, take it slowly
            G                 Em
you're still young, that's your fault,
          Am               D/F#
there's so much you have to go through
      G            D/F#            C           Am7
Find a girl, settle  down, if you want, you can marry
      G          Em           Am     D/F#
Look at me, I am old, but I'm happy

     G                  Bm
All the times that I've cried
        C                Am7
keeping all the things I knew inside
     G             Em           Am       D/F#
It's hard but it's harder to ignore it
             G          Bm
If they were right, I'd agree,
        C               Am7
but it's them they know not me
           G          Em            D      G
now there's a way and I know that I have to go away.
  D     C       G
I know I have to go
00:00 / 00:00
Outros vídeos desta música
Repetir
Outros vídeos desta música
Composição de Cat Stevens
405.536 exibições
    • ½ Tom
    • A
    • Bb
    • B
    • C
    • Db
    • D
    • Eb
    • E
    • F
    • F#
    • G
    • Ab
  • Adicionar à lista

    0 comentários

    Ver todos os comentários

    Conseguiu tocar?

    99 Tocaram 12 Ainda não

    Grave um vídeo tocando Father and Son e nos envie!

    Entre para oCifra Club PRO

    Tenha acesso a benefícios exclusivos no App e no Site

    • Chega de anúncios

    • Prioridade de compra em lançamentos

    • Mais recursos no app do Afinador

    • Atendimento Prioritário

    • Descontos nos produtos Cifra Club

    • Ajude a produzir mais conteúdo

    00:00 / 00:00

    Cifra Club Pro

    Aproveite o Cifra Club com benefícios exclusivos e sem anúncios
    Cifra Club Pro
    Aproveite o Cifra Club com benefícios exclusivos e sem anúncios
    OK