Cifra Club

Aprenda

Enquanto o Sol Brilhar

Catedral

Cifra: Principal (violão e guitarra)
tom: G
Intro 2x: G  D  Am  C

Riff Intro:

E|----------------------------------------------------------------|
B|----------------------------------------------------------------|
G|--0-0-4-4h2-0p2-2p4-4-4-4h2-0-4-4-4-4h2-0-2p4h2-0-0p2h0-2~------|
D|----------------------------------------------------------------|
A|----------------------------------------------------------------|
E|----------------------------------------------------------------|

E|----------------------------------------------------------------|
B|----------------------------------------------------------------|
G|-2-2-4h2-0-4----------------------------------------------------|
D|-------------2-2-2h0------2-----2p4-2---------------------------|
A|----------------------2p4----4----------------------------------|
E|----------------------------------------------------------------|

E|----------------------------------------------------------------|
B|----------------------------------------------------------------|
G|----5p7-5h4-5h4-----5p7-5h4-5h4---------------------------------|
D|-5---------------5---------------5------------------------------|
A|----------------------------------------------------------------|
E|----------------------------------------------------------------|

E|----------------------------------------------------------------|
B|----------------------------------------------------------------|
G|-2/4-4-4-4h2-0-4-4-4-4h2-0-2p4h2-0-0p2h0-2~---------------------|
D|----------------------------------------------------------------|
A|----------------------------------------------------------------|
E|----------------------------------------------------------------|

E|----------------------------------------------------------------|
B|----------------------------------------------------------------|
G|-2-2-4h2-0-4----------------------------------------------------|
D|-------------2-2-2h0------2-----2p4-2---------------------------|
A|----------------------2p4----4----------------------------------|
E|----------------------------------------------------------------|

E|----------------------------------------------------------------|
B|----------------------------------------------------------------|
G|----5p7-5h4-5h4-----5p7-5h4-5h4------2-0------------------------|
D|-5---------------5---------------5------------------------------|
A|----------------------------------------------------------------|
E|----------------------------------------------------------------|



G                    D
Dia a dia é bom viver
                      Am
Jamais cansa a vida, assim
C
Como as nuvens lá do céu
G
E ganhar da vida em si
D                      Am
Inexperiência e esperar
C
Esperança de amar
G
Rosa louca dos ventos
D
Presa a copa do chapéu
Am
Sei que tudo se transforma
C                     Cm
Mas o amor prevalecerá
                  G
Enquanto o sol brilhar
             D
E o dia amanhecer
                   Am
Eu sei que o meu querer
              C
Será sempre você

                G
Enquanto o sol brilhar
              D
E a gente percorrer
                        Am
Por essa estrada onde o medo nunca teve um lugar
C                     Cm
Sera nossa historia enquanto o sol brilhar

( G D Am C )

G
Nosso amor vai prosseguir
D                     Am
Todo dia vai recomeçar
C
Sei que a vida é assim
G
Não quero lembranças sei
D                        Am
Perdi tantas vezes, não tentei
C
O medo venceu no fim
G
Mas atiro em suas mãos
D
Distraídas uma flor
Am
A rosa dos sonhos meus
C                   Cm
E assim terás o meu amor

               G
Enquanto o sol brilhar
             D
E o dia amanhecer
                   Am
Eu sei que o meu querer
              C
Será sempre você

                G
Enquanto o sol brilhar
              D
E a gente percorrer
                        Am
Por essa estrada onde o medo nunca teve um lugar
C
Sera nossa historia enquanto o sol brilhar
Composição de Julio / Kim
Colaboração e revisão:
83.168 exibições
    • ½ Tom
    • A
    • Bb
    • B
    • C
    • Db
    • D
    • Eb
    • E
    • F
    • F#
    • G
    • Ab
  • Adicionar à lista

    0 comentários

    Ver todos os comentários

    Conseguiu tocar?

    16 Tocaram 1 Ainda não

    Grave um vídeo tocando Enquanto o Sol Brilhar e nos envie!

    00:00 / 00:00
    Outros vídeos desta música
    Repetir Qualidade Automático
    Outros vídeos desta música
    00:00 / 00:00
    Automático

    Cifra Club Pro

    Aproveite o Cifra Club com benefícios exclusivos e sem anúncios
    Cifra Club Pro
    Aproveite o Cifra Club com benefícios exclusivos e sem anúncios
    OK