Cifra Club

Mais Do Que Imaginei

Catedral

Cifra: Principal
exibições 149.345
Tom: C
(intro) C  G/B  G/Bb  A  Dm  Dm/C  Dm/B  G

C        G/B        G/Bb  A              Dm Dm/C Dm/B G
Quis enganar meu coração    mais foi em vão
F     G              Am
A verdade vem e não dá
       F         Dm       G
Eu só penso em te encontrar

(intro)

Eu quero o teu amor  (vocalização)

C               G/B              G/Bb
 Se eu disser que perdi a direção
                       A             Dm
Se eu disser que machuquei meu coração
       Dm/C        Dm/B G
Quando eu disse não
F                G            Am
Tudo que eu vejo só lembra você
         F        Dm     G
E é impossível te esquecer

             C G/B G/Bb A Dm Dm/C Dm/B  G
Por isso vem amor  (vocalização)

F              G            Am
De tudo que vivi você foi mais
F                 Dm       G
Do que eu imaginei ser capaz   Seu tiver
C             G/B             G/Bb
Todo o teu calor outra vez aqui
                           A          Dm
olhe bem para os meus olhos pra sentir
         Dm/C Dm/B G
o quanto eu sofri
F               G          Am
hoje sei que preciso de você
       F           Dm        G4  G
E não dá pra imaginar te perder

             C G/B G/Bb A     Dm Dm/C Dm/B  G
Eu amo teu amor ( vocalização)
F              G             Am
De tudo que vivi você foi mais
       F         Dm        G
Do que eu imaginei ser capaz

(solo) C G/B G/Bb A Dm Dm/C Dm/B G

Seu tiver
C             G/B             G/Bb
Todo o teu calor outra vez aqui
                           A          Dm
olhe bem para os meus olhos pra sentir
         Dm/C Dm/B G
o quanto eu sofri
F               G          Am
hoje sei que preciso de você
       F           Dm        G4  G
E não dá pra imaginar te perder

             C G/B G/Bb A     Dm Dm/C Dm/B  G
Eu amo teu amor ( vocalização)
F              G             Am
De tudo que vivi você foi mais
       F         Dm        G
Do que eu imaginei ser capaz

(solo) C G/B G/Bb A Dm Dm/C Dm/B G

E|-----------------------------------------------|
B|-8p6--5--8--5--8--5--8/10----------------------|
G|-----------------------------------------------|
D|-----------------------------------------------|
A|-----------------------------------------------|
E|-----------------------------------------------|

E|----------------------------------------------------------|
B|-6/8--6--5/6-----------5h6p5-----------------Har12--------|
G|-----------------5--7---------7--5/7---------Har12--------|
D|--------------7-------------------------------------------|
A|----------------------------------------------------------|
E|----------------------------------------------------------|
Acordes para:

    0 comentários

      mostrar mais comentários

      Conseguiu tocar?

      15tocaram0ainda não

      Grave um vídeo tocando Mais Do Que Imaginei e mande pra gente!

      00:00 / 00:00
      outros vídeos desta música
      repetirqualidadeautomática
      Outro vídeos desta música
        00:00 / 00:00
        automática
        OK