Cifra Club

Por Te Conhecer

Catedral

Cifra: Principal (violão e guitarra)
tom: G
[Intro] G

G        D       Em                   C            D  D4  D9  D
  Não precisa dizer nada que você não queira dizer
 G      D       Em                    C             D  D4  D9  D
 Não precisa sentir nada que você não queira sentir
             Em               Bm              Em
 Só me olhe assim para que eu possa encontrar
             C           D
 Tudo que me falta em você

G        D       Em                     C           D
  Eu não quero falar nada que eu tenha que explicar
G        D       Em                     C           D
  Eu não quero sentir nada que eu tenha que definir
                Em             Bm          Em
 Só quero te olhar para que eu possa entender
                    C         D  G  Em  C  D 
 A falta em mim que vem de você
                    C         D  G  Em  C  D 
 A falta em mim que vem de você

[Tab - Solo]

Parte 1 de 3

E|-12-12-12--10-10-10--7--------------------|
B|------------------------------------------|
G|------------------------------------------|
D|------------------------------------------|
A|------------------------------------------|
E|------------------------------------------|

Parte 2 de 3

E|-5-5-5--3-3-3-----------------------------|
B|----------------3/5-----------------------|
G|------------------------------------------|
D|------------------------------------------|
A|------------------------------------------|
E|------------------------------------------|

Parte 3 de 3

                    D D9 D      G
E|-7-7-7--5-5-5--3--------------------------|
B|------------------------------------------|
G|------------------------------------------|
D|------------------------------------------|
A|------------------------------------------|
E|------------------------------------------|

               Em              Bm         Em
 Só quero te olhar para que eu possa entender
                    C           D
 A falta em mim que vem de você

C      D             G   D/F#  Em  D
  Olhe para o lado estou ali
C       D           G   D/F#  Em  D
  Bem pertinho de você
C         D           G   D/F#  Em  D
  Hoje eu falo sem me sufocar
     C    D            G
 Obrigado por te conhecer
00:00 / 00:00
Outros vídeos desta música
Repetir
Outros vídeos desta música
Composição de Kim
Colaboração e revisão:
42.108 exibições
    • ½ Tom
    • A
    • Bb
    • B
    • C
    • Db
    • D
    • Eb
    • E
    • F
    • F#
    • G
    • Ab
  • Adicionar à lista

    0 comentários

    Ver todos os comentários

    Entre para oCifra Club PRO

    Tenha acesso a benefícios exclusivos no App e no Site

    • Chega de anúncios

    • Prioridade de compra em lançamentos

    • Mais recursos no app do Afinador

    • Atendimento Prioritário

    • Descontos nos produtos Cifra Club

    • Ajude a produzir mais conteúdo

    00:00 / 00:00

    Cifra Club Pro

    Aproveite o Cifra Club com benefícios exclusivos e sem anúncios
    Cifra Club Pro
    Aproveite o Cifra Club com benefícios exclusivos e sem anúncios
    OK