Cifra Club

A Escolhida

Católicas

Cifra: Principal (violão e guitarra)
exibições 358.721
Tom: G
[Intro]

          D       G                D        G                   D         G         A       D   A
E|--------------------------------------------------------------------------------------------|
B|--10/12-10----13-13-13-12-10-12-10----------------10----10-12-10------------------10---10---|
G|-----------12----------------------12--12-12-12-12----12----------12--12-12-12-12----12---12|
D|---------------------------------------------------------------------------------------------|
A|---------------------------------------------------------------------------------------------|
E|---------------------------------------------------------------------------------------------|

D                      G
Uma entre todas foi a escolhida
 Bm                      F#m
Foste tu Maria a serva preferida
 G             D
Mãe do meu Senhor
 G             A  A7
Mãe do meu salvado..or

   D  Bm   G        A         D Bm
Mariiia, cheia de graça e consolo
 G          A           D  Bm
Venha caminhar com teu poovo
 G         A        D           A
Nossa mãe sempre será.Sempre será

 D                    G
Roga pelos pecadores desta Terra
 Bm                        F#m
Roga pelo povo que em seu Deus espera
 G             D
Mãe do meu Senhor
 G               A  A7
Mãe do meu salvado..or

   D  Bm   G        A         D Bm
Mariiia, cheia de graça e consolo
 G          A           D  Bm
Venha caminhar com teu poovo
 G         A        D           A  A7
Nossa mãe sempre será.Sempre será

[Solo]
              D       G                D        G                   D         G         A       D   A
E|--------------------------------------------------------------------------------------------|
B|--10/12-10----13-13-13-12-10-12-10----------------10----10-12-10------------------10---10---|
G|-----------12----------------------12--12-12-12-12----12----------12--12-12-12-12----12--12|
D|--------------------------------------------------------------------------------------------|
A|--------------------------------------------------------------------------------------------|
E|--------------------------------------------------------------------------------------------E

D                     G
Uma entre todas foi a escolhida
 Bm                      F#m
Foste tu Maria a serva preferida
 G             D
Mãe do meu Senhor
 G               A  A7
Mãe do meu salvado..or

   D  Bm   G        A         D Bm
Mariiia, cheia de graça e consolo
 G          A           D  Bm
Venha caminhar com teu poovo
 G         A        D           A A7
Nossa mãe sempre será.Sempre será

 D                    G
Roga pelos pecadores desta Terra
 Bm                        F#m
Roga pelo povo que em seu Deus espera
 G             D
Mãe do meu Senhor
 G               A  A7
Mãe do meu salvado..or

   D  Bm   G        A         D Bm
Mariiia, cheia de graça e consolo
 G          A           D  Bm
Venha caminhar com teu povo
 G         A        D           A A7
Nossa mãe sempre será.Sempre será

0 comentários

    mostrar mais comentários

    Conseguiu tocar?

    24tocaram4ainda não

    Grave um vídeo tocando A Escolhida e mande pra gente!

    00:00 / 00:00
    outros vídeos desta música
    repetirqualidadeAutomático
    Outro vídeos desta música
      00:00 / 00:00
      OK